Asking Alexandria - Someone Somewhere tab

Artist:	Asking Alexandria				Tabbed by: Josey Stines
Song:	Someone, Somewhere
Album:	Reckless and Relentless
Year:	2011
Tuning:	Drop C
______________________________________________________________________________
0:00, 0:12
D	-------------------- 
A	-------------------- 
F	-------------------- 
C	---5~--8~--3~--0~--- x2
G	---5~--8~--3~--0~--- 
C	---5~--8~--3~--0~--- 

0:23
D	-----------------------------------------------------------------------------------------
A	-----------------------------------------------------------------------------------------
F	-----------------------------------------------------------------------------------------
C	-----------------------------------------------------------------------------------------
G	--5-5555555-55555555-558-8888888-8888888-8888-3-3333333-33333333-330-0000000-00000000000-
C	--5-5555555-55555555-558-8888888-8888888-8888-3-3333333-33333333-330-0000000-00000000000-
            * ******* ******** *** ******* ******* **** * ******* ******** *** ******* ***********
0:36, 0:48
D	-------------------------------------------------------------------- 
A	-------------------------------------------------------------------- 
F	-------------------------------------------------------------------- 
C	-------------------------------------------------------------------- 
G	-------5---7---8-----5---7---8-----5---7---8---------7----10-8-7---- 
C	---555---5---5---555---5---5---888---8---8---888---8---8------------ 
             ***   *   *   ***   *   *   ***   *   *   ***   *   *
D	------------------------------------------------------------------- 
A	------------------------------------------------------------------- 
F	------------------------------------------------------------------- 
C	---------------3-------------3-------------------8-7-5-7-5--------- x2 
G	-------3---7-------------7-------7-----5---7---8-----------8-7-5--- 
C	---333---3---3---333---3---3---3---000---0---0--------------------- 
             ***   *   *   ***   *   *   *   ***   *   *
1:01
D	---------------------------------------------------------------------------------------- 
A	---------------------------------------------------------------------------------------- 
F	---3---------5---------7---------5---------3---------5---------7---------5---------3~--- 
C	---3--(x16)--5--(x16)--7--(x16)--5--(x16)--3--(x16)--5--(x16)--7--(x16)--5--(x16)--3~--- 
G	---1---------3---------5---------3---------1---------3---------5---------3---------1~--- 
C	---------------------------------------------------------------------------------------- 

1:26
D	-------------------------------------------------------------------- 
A	-------------------------------------------------------------------- 
F	-------------------------------------------------------------------- 
C	-------------------------------------------------------------------- 
G	-------5---7---8-----5---7---8-----5---7---8---------7----10-8-7---- 
C	---555---5---5---555---5---5---888---8---8---888---8---8------------ 
             ***   *   *   ***   *   *   ***   *   *   ***   *   *
D	------------------------------------------------------------------- 
A	------------------------------------------------------------------- 
F	------------------------------------------------------------------- 
C	---------------3-------------3-------------------8-7-5-7-5--------- 
G	-------3---7-------------7-------7-----5---7---8-----------8-7-5--- 
C	---333---3---3---333---3---3---3---000---0---0--------------------- 
             ***   *   *   ***   *   *   *   ***   *   *
1:39
D	-----------------------------------------------------------------------------------------
A	-----------------------------------------------------------------------------------------
F	-----------------------------------------------------------------------------------------
C	-----------------------------------------------------------------------------------------
G	--5-5555555-55555555-558-8888888-8888888-8888-3-3333333-33333333-330-0000000-00000000000-
C	--5-5555555-55555555-558-8888888-8888888-8888-3-3333333-33333333-330-0000000-00000000000-
            * ******* ******** *** ******* ******* **** * ******* ******** *** ******* ***********
1:51
D	----------------------------------------------------------------------------------- 
A	----------------------------------------------------------------------------------- 
F	---3---------5---------7---------5---------3---------5---------7---------5--------- 
C	---3--(x16)--5--(x16)--7--(x16)--5--(x16)--3--(x16)--5--(x16)--7--(x16)--5--(x16)-- 
G	---1---------3---------5---------3---------1---------3---------5---------3--------- 
C	----------------------------------------------------------------------------------- 

2:14, 2:26
D	------------------------------------------------------------------------------------- 
A	------------------------------------------------------------------------------------- 
F	------------------------------------------------------------------------------------- 
C	---------------------------------------------------------------------5------8-------- x2
G	---7h8--3-5--000-000-0000-7h8--3-5-00-000-0000-7h8--3-5-000-000-0000-5-5555-8-8888--- 
C	-------------000-000-0000----------00-000-0000----------000-000-0000-5-5555-8-8888--- 
                       *** *** ****          ** *** ****          *** *** ****   ****   ****
2:41, 3:05
D	------------------------------------------------------------------------------------ 
A	------------------------------------------------------------------------------------ 
F	---3---------5---------7---------5---------3---------5---------7---------5---------- 
C	---3--(x16)--5--(x16)--7--(x16)--5--(x16)--3--(x16)--5--(x16)--7--(x16)--5--(x16)--- x2
G	---1---------3---------5---------3---------1---------3---------5---------3---------- 
C	------------------------------------------------------------------------------------ 

3:29
D	----------------------------------------------- 
A	----------------------------------------------- 
F	----------------------------------------------- 
C	----------------------------------------------- 
G	---8p7--3-5--000-000-0000-8p7--3-5-00-000-00--- 
C	-------------000-000-0000----------00-000-00--- 
                       *** *** ****          ** *** **                  
Legend:
~	Let Note Ring
*	Palm Mute
p	Pull-Off

END
Tap to rate this tab
 
# A B C D E F G H I J K L M N O P Q R S T U V W X Y Z