Guitaretab - guitar tabs
Song name
# A B C D E F G H I J K L M N O P Q R S T U V W X Y Z

At The Gates - Slaughter Of The Soul tab

#----------------------------------PLEASE NOTE---------------------------------#
#This file is the author's own work and represents their interpretation of the #
#song. You may only use this file for private study, scholarship, or research. #
#------------------------------------------------------------------------------#

SLAUGHTER OF THE SOUL
As recorded by At The Gates
(From the 1995 Album SLAUGHTER OF THE SOUL)

Transcribed by Krim
	

Words by Tomas Lindberg Music by Ander Björler
Arranged by At The Gates

Gtr I (B E A D F# B) - 'Untitled'
Gtr II (B E A D F# B) - 'Untitled'
Gtr III (B E A D F# B) - 'Untitled'

 Intro
  Q=235
       C5      N.C.
 4/4
       Gtr I
               PM----|   PM|       PM  PM|    PM|
  H    H       E S S E E E E E E   E E E E  E E E E
|------------|-------------------|------------------|
|------------|-------------------|------------------|
|------------|-------------------|------------------|
|------------|-------------------|------------------|
|------------|---------7-----5h7-|---7-----10-----9-|
|------8\----|-0-0-0-0---0-0-----|-0---0-0----0-0---|
|
| Gtr II
| W            W                   W
|------------|-------------------|------------------|
|------------|-------------------|------------------|
|------------|-------------------|------------------|
|------------|-------------------|------------------|
|------------|-------------------|------------------|
|------------|-------------------|------------------|


                      E5
  PM--------|         PM------|    PM---|
  E E E S S E E E E   E  S S  E E  E    E E E
|-------------------|---------------------------|
|-------------------|---------------------------|
|-------------------|---------------------------|
|-------------------|---------------------------|
|-----2-2-2-2-3-----|-----------7---------5h7---|
|-0-0-----------3-2-|-0--0-0--0----0----0-------|
|
| W                   E.   E.   E.   E.   E.  S
|-------------------|---------------------------|
|-------------------|---------------------------|
|-------------------|---------------------------|
|-------------------|---------------------------|
|-------------------|-2---------2---------2-----|
|-------------------|-0---------0---------0-----|


                                  Pre-Verse
    E5        E5        N.C.
                                   PM----|   PM|       PM  PM|    PM|
  E E  E    E E. Q  S   W          E S S E E E E E E   E E E E  E E E E
|---------------------|----------|-------------------|--------------------|
|---------------------|----------|-------------------|--------------------|
|---------------------|----------|-------------------|--------------------|
|---------------------|----------|-------------------|--------------------|
|---7---------2-------|----------|---------7-----5h7-|---7-----10-----9---|
|-0----0----0-0-------|----------|-0-0-0-0---0-0-----|-0---0-0----0-0-----|
|
|                                  PM----|   PM|       PM  PM|    PM|
| E E.   E.   E. Q  S   W          E S S E E E E E E   E E E E  E E E E
|---------------------|----------|-------------------|--------------------|
|---------------------|----------|-------------------|--------------------|
|---------------------|----------|-------------------|--------------------|
|---------------------|----------|-------------------|--------------------|
|---2---------2-------|----------|---------7-----5h7-|---7-----10-----9---|
|---0---------0-------|----------|-0-0-0-0---0-0-----|-0---0-0----0-0-----|


  N.C.
  Gtrs I, II
  PM--------|         PM----|   PM|       PM  PM|    PM|     PM|
  E E E S S E E E E   E S S E E E E E E   E E E E  E E E E   E E E E E Q.
|-------------------|-------------------|------------------|---------------|
|-------------------|-------------------|------------------|---------------|
|-------------------|-------------------|------------------|---------------|
|-------------------|-------------------|------------------|---------------|
|-----2-2-2-2-3-----|---------7-----5h7-|---7-----10-----9-|-----2h5p2h6---|
|-0-0-----------3-2-|-0-0-0-0---0-0-----|-0---0-0----0-0---|-0-0-----------|


  N.C.
  PM----|   PM|       PM  PM|    PM|
  E S S E E E E E E   E E E E  E E E E
|-------------------|------------------|
|-------------------|------------------|
|-------------------|------------------|
|-------------------|------------------|
|---------7-----5h7-|---7-----10-----9-|
|-0-0-0-0---0-0-----|-0---0-0----0-0---|


  PM--------|         PM----|   PM|
  E E E S S E E E E   E S S E E E E E E
|-------------------|--------------------|
|-------------------|--------------------|
|-------------------|--------------------|
|-------------------|--------------------|
|-----2-2-2-2-3-----|---------7-----5h7--|
|-0-0-----------3-2-|-0-0-0-0---0-0------|


  N.C.
  PM  PM|    PM|     PM|
  E E E E  E E E E   E E E E E Q.
|------------------|----------------|
|------------------|----------------|
|------------------|----------------|
|------------------|----------------|
|---7-----10-----9-|-----2h5p2h6----|
|-0---0-0----0-0---|-0-0------------|


   Verse
    N.C.
    PM----|   PM--|   PM----|       PM----|
    E S S E E S S E E S S   E E E E E S S E  E
||------------------------|--------------------|
||o-----------------------|--------------------|
||------------------------|--------------------|
||------------------------|---9----------------|
||o---------7-------7-----|-----7-----------10-|
||--0-0-0-0---0-0-0---0-0-|-0-----7-8-8-8-8----|


  PM--|      PM   PM------------|   PM--|
  S S E E  E E  E S S E   E S S E E S S E E E
|-----------------------|---------------------|
|-----------------------|---------------------|
|-----------------------|---------------------|
|--------------10-------|---------------------|
|-------9h10------------|---------3-------2h3-|
|-8-8-8------8----8-8-8-|-5-5-5-5---5-5-5-----|


  N.C.
  PM--------------|     PM------------------|
  E E S S E E S S E E   S S E E S S E E S S E
|---------------------|------------------------||
|---------------------|-----------------------o||
|---------------------|------------------------||
|---------------------|------------------------||
|-------------------2-|-----------------------o||
|-5-5-5-5-5-3-3-3-3---|-3-3-3-1-1-1-1-1-1-1-1--||


   Chorus
    N.C.
    Gtr I
    PM----|    PM  PM------|   PM   PM----|
    E S S E  E E E E S S   E E E  E E S S E  E
||-----------------------|---------------------|
||o----------------------|---------------------|
||-----------------------|---------------------|
||-----------------------|---------------------|
||o---------10---9-------|---9----7---------10-|
||--0-0-0-0----0---8-8-8-|-8---8----0-0-0-0----|
|
|   Gtr II
|   PM----|    PM  PM------|   PM   PM----|
|   E S S E  E E E E S S   E E E  E E S S E  E
||-----------------------|---------------------|
||o----------------------|---------------------|
||-----------------------|---------------------|
||-----------9---7-------|---7---------------9-|
||o----------------------|-------10------------|
||--0-0-0-0----0---8-8-8-|-8---8----0-0-0-0----|


 1.                    2.
  PM
  E E E E  E E E  E     E E Q.   Q.
|--------------------||---------------|
|-------------------o||---------------|
|--------------------||---------------|
|--------------------||---------------|
|---9--------7h9h10-o||---9------6----|
|-0---7h8h10---------||-0---7---------|
|
| PM
| E E E E  E E E  E     E E Q.   Q.
|--------------------||---------------|
|-------------------o||---------------|
|--------------------||---------------|
|---7----------------||---7-----------|
|------------7h9h10-o||-----6----9----|
|-0---7h8h10---------||-0-------------|


 Pre-Verse
  N.C.
  Gtrs I, II
  PM----|   PM|       PM  PM|    PM|
  E S S E E E E E E   E E E E  E E E E
|-------------------|------------------|
|-------------------|------------------|
|-------------------|------------------|
|-------------------|------------------|
|---------7-----5h7-|---7-----10-----9-|
|-0-0-0-0---0-0-----|-0---0-0----0-0---|


  PM--------|         PM----|   PM|
  E E E S S E E E E   E S S E E E E E E
|-------------------|--------------------|
|-------------------|--------------------|
|-------------------|--------------------|
|-------------------|--------------------|
|-----2-2-2-2-3-----|---------7-----5h7--|
|-0-0-----------3-2-|-0-0-0-0---0-0------|


  N.C.
  PM  PM|    PM|     PM|
  E E E E  E E E E   E E E E E Q.
|------------------|----------------|
|------------------|----------------|
|------------------|----------------|
|------------------|----------------|
|---7-----10-----9-|-----2h5p2h6----|
|-0---0-0----0-0---|-0-0------------|


  N.C.                                                       E5
  PM----|   PM|       PM  PM|    PM|     PM--------|
  E S S E E E E E E   E E E E  E E E E   E E E S S E E E E   E. E. E. E. E. S
|-------------------|------------------|-------------------|------------------|
|-------------------|------------------|-------------------|------------------|
|-------------------|------------------|-------------------|------------------|
|-------------------|------------------|-------------------|------------------|
|---------7-----5h7-|---7-----10-----9-|-----2-2-2-2-3-----|-2-----2-----2----|
|-0-0-0-0---0-0-----|-0---0-0----0-0---|-0-0-----------3-2-|-0-----0-----0----|


                               Verse
    E5                          N.C.
                                PM----|   PM--|   PM----|       PM----|
  E E. E. H      +W             E S S E E S S E E S S   E E E E E S S E  E
|--------------|------------||------------------------|---------------------|
|--------------|------------||o-----------------------|---------------------|
|--------------|------------||------------------------|---------------------|
|--------------|------------||------------------------|---9-----------------|
|---2-----2----|-(2)--------||o---------7-------7-----|-----7-----------10--|
|---0-----0----|-(0)--------||--0-0-0-0---0-0-0---0-0-|-0-----7-8-8-8-8-----|


  N.C.
  PM--|      PM   PM------------|   PM--|
  S S E E  E E  E S S E   E S S E E S S E E E
|-----------------------|---------------------|
|-----------------------|---------------------|
|-----------------------|---------------------|
|--------------10-------|---------------------|
|-------9h10------------|---------3-------2h3-|
|-8-8-8------8----8-8-8-|-5-5-5-5---5-5-5-----|


  PM--------------|     PM------------------|
  E E S S E E S S E E   S S E E S S E E S S E
|---------------------|------------------------||
|---------------------|-----------------------o||
|---------------------|------------------------||
|---------------------|------------------------||
|-------------------2-|-----------------------o||
|-5-5-5-5-5-3-3-3-3---|-3-3-3-1-1-1-1-1-1-1-1--||


   Chorus
    N.C.
    Gtr I
    PM----|    PM  PM------|   PM   PM----|
    E S S E  E E E E S S   E E E  E E S S E  E
||-----------------------|---------------------|
||o----------------------|---------------------|
||-----------------------|---------------------|
||-----------------------|---------------------|
||o---------10---9-------|---9----7---------10-|
||--0-0-0-0----0---8-8-8-|-8---8----0-0-0-0----|
|
|   Gtr II
|   PM----|    PM  PM------|   PM   PM----|
|   E S S E  E E E E S S   E E E  E E S S E  E
||-----------------------|---------------------|
||o----------------------|---------------------|
||-----------------------|---------------------|
||-----------9---7-------|---7---------------9-|
||o----------------------|-------10------------|
||--0-0-0-0----0---8-8-8-|-8---8----0-0-0-0----|


 1.                    2.
  PM
  E E E E  E E E  E     E E Q.   Q.
|--------------------||---------------|
|-------------------o||---------------|
|--------------------||---------------|
|--------------------||---------------|
|---9--------7h9h10-o||---9------6----|
|-0---7h8h10---------||-0---7---------|
|
| PM
| E E E E  E E E  E     E E Q.   Q.
|--------------------||---------------|
|-------------------o||---------------|
|--------------------||---------------|
|---7----------------||---7-----------|
|------------7h9h10-o||-----6----9----|
|-0---7h8h10---------||-0-------------|


 Interlude
  G     F#    C5         E    E5    F#         G     A       E5    F#    C5
  Gtr I
   H.          Q     +H        H          +Q    Q.    Q.      H.          Q
|-----------------|--------------------|-------------------|-----------------|
|-----------------|--------------------|-------------------|-----------------|
|-----------------|--------------------|-------------------|-----------------|
|--9-----------5--|--(5)-------9-------|--(9)---5-----9----|--9-----------5--|
|--7-----------3--|--(3)-------7-------|--(7)--------------|--7-----------3--|
|-----------------|--------------------|--------3-----7----|-----------------|
|
| Gtr II
|  Q.    Q.    Q     +E  Q.    Q.    E    +Q    Q.    Q.      Q.    Q.    Q
|-----------------|--------------------|-------------------|-----------------|
|-----------------|--------------------|-------12----10----|-----------------|
|-12----11----11--|-(11)-9----12----11-|-(11)--------------|-12----11----11--|
|-----------------|--------------------|--------9-----7----|-----------------|
|-10-----9-----9--|--(9)-7----10-----9-|--(9)--------------|-10-----9-----9--|
|-----------------|--------------------|-------------------|-----------------|


       E                            E5    F#    C5         E    E5    F#
   +H       Q.   E   +Q   H.         H.          Q     +H        H
|------------------|--------------|-----------------|--------------------|
|------------------|--------------|-----------------|--------------------|
|------------------|--------------|-----------------|--------------------|
|--(5)-------------|--------------|--9-----------5--|--(5)-------9-------|
|--(3)-------------|--------------|--7-----------3--|--(3)-------7-------|
|-----------5----7-|-(7)--7-------|-----------------|--------------------|
|
|  +E  Q.   Q.   E    E E H.         Q.    Q.    Q     +E  Q.    Q.    E
|------------------|--------------|-----------------|--------------------|
|------------------|--------------|-----------------|--------------------|
|-(11)-9-----------|--------------|-12----11----11--|-(11)-9----12----11-|
|------------------|--------------|-----------------|--------------------|
|--(9)-7----7----6h|==7p6---------|-10-----9-----9--|--(9)-7----10-----9-|
|------------------|------7-------|-----------------|--------------------|


        G     B       E5    F#    C5         E             N.C.
   +Q    Q.    Q.      H.          Q     +H       Q.   E   +Q   E E E Q.
|-------------------|-----------------|------------------|-----------------|
|-------------------|-----------------|------------------|-----------------|
|-------------------|-----------------|------------------|-----------------|
|--(9)---5-----9----|--9-----------5--|--(5)-------------|-----------------|
|--(7)--------------|--7-----------3--|--(3)-------------|------2h5p2h6----|
|--------3-----7----|-----------------|-----------5----7-|-(7)-------------|
|
|  +Q    Q.    Q.      Q.    Q.    Q     +E  Q.   H        +W
|-------------------|-----------------|------------------|-----------------|
|-------12----10----|-----------------|------------------|-----------------|
|-(11)--------------|-12----11----11--|-(11)-9-----------|-----------------|
|--------9-----7----|-----------------|------------------|-----------------|
|--(9)--------------|-10-----9-----9--|--(9)-7----7------|-(7)-------------|
|-------------------|-----------------|------------------|-----------------|


  N.C.
  PM----|   PM|       PM  PM|
  E S S E E E E E E   E E E E Q  E E   E H.      +E
|-------------------|----------------|---------------|
|-------------------|----------------|---------------|
|-------------------|----------------|---------------|
|-------------------|----------------|---------------|
|---------7-----5h7-|---7------------|---------------|
|-0-0-0-0---0-0-----|-0---0-0-3--3-6-|-7-6-------(6)-|


                              E5 B5   Bb5A5
  PM----|   PM|       PM  PM|
  E S S E E E E E E   E E E E Q  Q    Q  H.
|-------------------|---------------|----------|
|-------------------|---------------|----------|
|-------------------|---------------|----------|
|-------------------|------------4--|-3--2-----|
|---------7-----5h7-|---7-----2--2--|-1--0-----|
|-0-0-0-0---0-0-----|-0---0-0-0-----|----------|


  N.C.
  PM----|   PM|       PM  PM|
  E S S E E E E E E   E E E E Q  E E   E H.      +E
|-------------------|----------------|---------------|
|-------------------|----------------|---------------|
|-------------------|----------------|---------------|
|-------------------|----------------|---------------|
|---------7-----5h7-|---7------------|---------------|
|-0-0-0-0---0-0-----|-0---0-0-3--3-6-|-7-6-------(6)-|


  N.C.
  PM----|   PM|       PM  PM|
  E S S E E E E E E   E E E E Q  Q    Q  Q  Q  Q
|-------------------|---------------|-------------|
|-------------------|---------------|-------------|
|-------------------|---------------|-------------|
|-------------------|---------------|-------------|
|---------7-----5h7-|---7-----------|-------5--6--|
|-0-0-0-0---0-0-----|-0---0-0-3--5--|-6--7--------|


 Guitar Solo
  E5            E5                  N.C.
  Gtr I
   W             H      H           +W                 Q   H.
|-10----------|-10------9b10r=====|=(9)-------------|-10--10-----|
|-------------|-------------------|-----------------|------------|
|-------------|-------------------|-----------------|------------|
|-------------|-------------------|-----------------|------------|
|-------------|-------------------|-----------------|------------|
|-------------|-------------------|-----------------|------------|
|
| Gtr II
|  W             H      H           +W                 Q   H.
|--7----------|--7------6b7r======|=(6)-------------|--7---7-----|
|-------------|-------------------|-----------------|------------|
|-------------|-------------------|-----------------|------------|
|-------------|-------------------|-----------------|------------|
|-------------|-------------------|-----------------|------------|
|-------------|-------------------|-----------------|------------|
|
| Gtr III
|  Q  H.         Q.   E Q     E E    E  H.      +E     Q   H.
|-------------|-------------------|-----------------|------------|
|-------------|-------------------|-----------------|------------|
|-------------|-------------------|-----------------|------------|
|-------------|-------------------|-----------------|------------|
|--2--2-------|--2----------------|-----------------|------------|
|--0--0-------|--0------3-----3-6-|--7--6-------(6)-|--0---0-----|

[ Tab from: http://www.guitaretab.com/a/at-the-gates/29100.html ]
               E5    B5   Bb5  A5
   Q   S  S  E H          +W
|-14--10h14p10-9b10r====|=(9)----------|
|-----------------------|--------------|
|-----------------------|--------------|
|-----------------------|--------------|
|-----------------------|--------------|
|-----------------------|--------------|
|
|  Q   S  S  E H          +W
|-10---7h10p=7-6b7r=====|=(6)----------|
|-----------------------|--------------|
|-----------------------|--------------|
|-----------------------|--------------|
|-----------------------|--------------|
|-----------------------|--------------|
|
|  H           Q     Q     Q   H.
|-----------------------|--------------|
|-----------------------|--------------|
|-----------------------|--------------|
|--------------------4--|--3---2-------|
|--------------2-----2--|--1---0-------|
|--------------0--------|--------------|


  E5                    E5
   E E E   E E E  E E    E   E E E   H
|---------------------|----------------------|
|---------------------|----------------------|
|-12-0-0--12-0-0-12-0-|--0--12-0-0-[12]------|
|---------------------|----------------------|
|---------------------|----------------------|
|---------------------|----------------------|
|
|  E E E   E E E  E E    E   E E E   H
|---------------------|----------------------|
|---------------------|----------------------|
|-12-0-0--12-0-0-12-0-|--0--12-0-0-[12]------|
|---------------------|----------------------|
|---------------------|----------------------|
|---------------------|----------------------|
|
|  Q   H.               +H           Q   E E
|---------------------|----------------------|
|---------------------|----------------------|
|---------------------|----------------------|
|---------------------|----------------------|
|--2---2--------------|-(2)------------------|
|--0---0--------------|-(0)----------3---3-6-|


  N.C.
   +W                E E E   E  E  E  E  E
|------------------|-----------------12-12-|
|------------------|--------12-12-12-------|
|-(12)-------------|-9-9-9-----------------|
|------------------|-----------------------|
|------------------|-----------------------|
|------------------|-----------------------|
|
|  +W                E E E   E  E  E  E  E
|------------------|-----------------12-12-|
|------------------|--------12-12-12-------|
|-(12)-------------|-9-9-9-----------------|
|------------------|-----------------------|
|------------------|-----------------------|
|------------------|-----------------------|
|
|   E  H.      +E    Q   H.
|------------------|-----------------------|
|------------------|-----------------------|
|------------------|-----------------------|
|------------------|-----------------------|
|------------------|-----------------------|
|---7--6-------(6)-|-0---0-----------------|


   E  E  E  E  H            +W
|-12----------12---------|-(12)-----------|
|----12-12-12-15b17======|=(15)-----------|
|------------------------|----------------|
|------------------------|----------------|
|------------------------|----------------|
|------------------------|----------------|
|
|  E  E  E  E  H            +W
|-12----------12---------|-(12)-----------|
|----12-12-12-15b17======|=(15)-----------|
|------------------------|----------------|
|------------------------|----------------|
|------------------------|----------------|
|------------------------|----------------|
|
|  H           Q      Q      Q   Q  Q  Q
|------------------------|----------------|
|------------------------|----------------|
|------------------------|----------------|
|------------------------|----------------|
|------------------------|----------5--6--|
|--------------3------5--|---6---7--------|


  N.C.
  W                H       H        +H        H          W
|---------------|-----------------|-------------------|----------------|
|---------------|-----------------|-------------------|----------------|
|---------------|-----------------|-------------------|----------------|
|---------------|-----------------|-------------------|----------------|
|-7-------------|-10-------9------|-(9)------12-------|-10-------------|
|---------------|-----------------|-------------------|----------------|
|
| W                H       H        +H        H          W
|---------------|-----------------|-------------------|----------------|
|---------------|-----------------|-------------------|----------------|
|---------------|-----------------|-------------------|----------------|
|-5-------------|--9-------7------|-(7)------10-------|--9-------------|
|---------------|-----------------|-------------------|----------------|
|---------------|-----------------|-------------------|----------------|
|
| PM----------------------------------------------------------------|
| Q  E E E E Q     E E E E Q  E E    E  E Q   E E E E    Q  E E E E Q
|---------------|-----------------|-------------------|----------------|
|---------------|-----------------|-------------------|----------------|
|---------------|-----------------|-------------------|----------------|
|---------------|-----------------|-------------------|----------------|
|---------------|-----------------|-------------------|----------------|
|-0--0-0-0-0-0--|--0-0-0-0-8--8-8-|--8--8-8---8-8-8-8-|--0--0-0-0-0-0--|


  N.C.
  H       H        +H         H         W               H       H
|----------------|-------------------|----------------|----------------|
|----------------|-------------------|----------------|----------------|
|----------------|-------------------|----------------|----------------|
|----------------|-------------------|----------------|----------------|
|-7-------6------|-(6)-------12------|-10-------------|-9-------7------|
|----------------|-------------------|----------------|----------------|
|
| H       H        +H         H         W               H       H
|----------------|-------------------|----------------|----------------|
|----------------|-------------------|----------------|----------------|
|----------------|-------------------|----------------|----------------|
|-5-------4------|-(4)-------10------|--9-------------|-7-------5------|
|----------------|-------------------|----------------|----------------|
|----------------|-------------------|----------------|----------------|
|
| PM-------------------------|          PM---------------------------|
| E E E E Q  E E    E  E E E  E Q.      Q  E E E E Q    E E E E Q  E E
|----------------|-------------------|----------------|----------------|
|----------------|-------------------|----------------|----------------|
|----------------|-------------------|----------------|----------------|
|----------------|-------------------|----------------|----------------|
|----------------|-------2h5p=2h6----|----------------|----------------|
|-0-0-0-0-7--7-7-|--7--7-------------|--0--0-0-0-0-0--|-0-0-0-0-0--8-8-|


  N.C.
  +H       H         W               H       E E Q     +H        E  E  Q
|------------------|---------------|-----------------|--------------------|
|------------------|---------------|-----------------|--------------------|
|------------------|---------------|-----------------|--------------------|
|------------------|---------------|-----------------|--------------------|
|-(7)------6-------|-7-------------|-7-------6h7h9---|-(9)-------9h10h12--|
|------------------|---------------|-----------------|--------------------|
|
| +H       H         W               H       H         +W
|------------------|---------------|-----------------|--------------------|
|------------------|---------------|-----------------|--------------------|
|------------------|---------------|-----------------|--------------------|
|-(5)------4-------|-2-------------|-----------------|--------------------|
|------------------|---------------|-7---------------|--------------------|
|------------------|---------------|---------7-------|-(7)----------------|
|
|  PM------------------------------------------------------|
|  E  E Q  E E E E   Q  E E E E Q    E E E E Q   E E    E  E E E E  Q.
|------------------|---------------|-----------------|--------------------|
|------------------|---------------|-----------------|--------------------|
|------------------|---------------|-----------------|--------------------|
|------------------|---------------|-----------------|--------------------|
|------------------|---------------|-----------------|-------2h5p2h=6-----|
|--8--8-8--8-8-8-8-|-0--0-0-0-0-0--|-0-0-0-0-7---7-7-|--7--7--------------|


 Different Chorus
  E5
  Gtrs I, II
  Q  Q  H      H    Q  E E   E H.      +E
|------------|-------------|---------------|
|------------|-------------|---------------|
|------------|-------------|---------------|
|------------|-------------|---------------|
|-2--2-------|-------------|---------------|
|-0--0-------|------3--3-6-|-7-6-------(6)-|


  E5                   B5   Bb5A5
  Q  Q  H      H    Q  Q    Q  H.
|------------|------------|----------|
|------------|------------|----------|
|------------|------------|----------|
|------------|---------4--|-3--2-----|
|-2--2-------|------2--2--|-1--0-----|
|-0--0-------|------0-----|----------|


  E5           N.C.
  Q  Q  H      H    Q  E E   E H.      +E
|------------|-------------|---------------|
|------------|-------------|---------------|
|------------|-------------|---------------|
|------------|-------------|---------------|
|-2--2-------|-------------|---------------|
|-0--0-------|------3--3-6-|-7-6-------(6)-|


  E5           N.C.
  Q  Q  H      H    Q  Q    Q  Q  Q  Q
|------------|------------|--------------|
|------------|------------|--------------|
|------------|------------|--------------|
|------------|------------|--------------|
|-2--2-------|------------|-------5--6---|
|-0--0-------|------3--5--|-6--7---------|


   Verse
    N.C.
    PM----|   PM--|   PM----|       PM----|
    E S S E E S S E E S S   E E E E E S S E  E
||------------------------|--------------------|
||o-----------------------|--------------------|
||------------------------|--------------------|
||------------------------|---9----------------|
||o---------7-------7-----|-----7-----------10-|
||--0-0-0-0---0-0-0---0-0-|-0-----7-8-8-8-8----|


  PM--|      PM   PM------------|   PM--|
  S S E E  E E  E S S E   E S S E E S S E E E
|-----------------------|---------------------|
|-----------------------|---------------------|
|-----------------------|---------------------|
|--------------10-------|---------------------|
|-------9h10------------|---------3-------2h3-|
|-8-8-8------8----8-8-8-|-5-5-5-5---5-5-5-----|


  N.C.
  PM--------------|     PM------------------|
  E E S S E E S S E E   S S E E S S E E S S E
|---------------------|------------------------||
|---------------------|-----------------------o||
|---------------------|------------------------||
|---------------------|------------------------||
|-------------------2-|-----------------------o||
|-5-5-5-5-5-3-3-3-3---|-3-3-3-1-1-1-1-1-1-1-1--||


   Chorus
    N.C.
    Gtr I
    PM----|    PM  PM------|   PM   PM----|
    E S S E  E E E E S S   E E E  E E S S E  E
||-----------------------|---------------------|
||o----------------------|---------------------|
||-----------------------|---------------------|
||-----------------------|---------------------|
||o---------10---9-------|---9----7---------10-|
||--0-0-0-0----0---8-8-8-|-8---8----0-0-0-0----|
|
|   Gtr II
|   PM----|    PM  PM------|   PM   PM----|
|   E S S E  E E E E S S   E E E  E E S S E  E
||-----------------------|---------------------|
||o----------------------|---------------------|
||-----------------------|---------------------|
||-----------9---7-------|---7---------------9-|
||o----------------------|-------10------------|
||--0-0-0-0----0---8-8-8-|-8---8----0-0-0-0----|


 1.                    2.
  PM
  E E E E  E E E  E     E E Q.   Q.
|--------------------||---------------|
|-------------------o||---------------|
|--------------------||---------------|
|--------------------||---------------|
|---9--------7h9h10-o||---9------6----|
|-0---7h8h10---------||-0---7---------|
|
| PM
| E E E E  E E E  E     E E Q.   Q.
|--------------------||---------------|
|-------------------o||---------------|
|--------------------||---------------|
|---7----------------||---7-----------|
|------------7h9h10-o||-----6----9----|
|-0---7h8h10---------||-0-------------|


 Interlude
  E5  F#      C5              E5       F#       G     B       E5  F#      C5
  Gtr I
   H.          Q     +H        H           +Q    Q.    Q.      H.          Q
|-----------------|---------------------|-------------------|-----------------|
|-----------------|---------------------|-------------------|-----------------|
|-----------------|---------------------|-------------------|-----------------|
|--9-----------5--|--(5)-------9--------|--(9)---5-----9----|--9-----------5--|
|--7-----------3--|--(3)-------7--------|--(7)--------------|--7-----------3--|
|-----------------|---------------------|--------3-----7----|-----------------|
|
|  Q.    Q.    Q     +E  Q.    Q.    E     +Q    Q.    Q.      Q.    Q.    Q
|-----------------|---------------------|-------------------|-----------------|
|-----------------|---------------------|-------12----10----|-----------------|
|-12----11----11--|-(11)-9----12----11--|-(11)--------------|-12----11----11--|
|-----------------|---------------------|--------9-----7----|-----------------|
|-10-----9-----9--|--(9)-7----10-----9--|--(9)--------------|-10-----9-----9--|
|-----------------|---------------------|-------------------|-----------------|


  C5   E                            E5    F#    C5         E    E5    F#
   +H       Q.   E   +Q   H.         H.          Q     +H        H
|------------------|--------------|-----------------|--------------------|
|------------------|--------------|-----------------|--------------------|
|------------------|--------------|-----------------|--------------------|
|--(5)-------------|--------------|--9-----------5--|--(5)-------9-------|
|--(3)-------------|--------------|--7-----------3--|--(3)-------7-------|
|-----------5----7-|-(7)--7-------|-----------------|--------------------|
|
|  +E  Q.   Q.   E    E E H.         Q.    Q.    Q     +E  Q.    Q.    E
|------------------|--------------|-----------------|--------------------|
|------------------|--------------|-----------------|--------------------|
|-(11)-9-----------|--------------|-12----11----11--|-(11)-9----12----11-|
|------------------|--------------|-----------------|--------------------|
|--(9)-7----7----6h|==7p6---------|-10-----9-----9--|--(9)-7----10-----9-|
|------------------|------7-------|-----------------|--------------------|


  E5    G     B       E5          C5         E
   +Q    Q.    Q.      H.          Q     +H        Q.   E   +Q   E E E Q.
|-------------------|-----------------|-------------------|-----------------|
|-------------------|-----------------|-------------------|-----------------|
|-------------------|-----------------|-------------------|-----------------|
|--(9)---5-----9----|--9-----------5--|--(5)--------------|-----------------|
|--(7)--------------|--7-----------3--|--(3)--------------|------2h5p2h6----|
|--------3-----7----|-----------------|------------5----7-|-(7)-------------|
|
|  +Q    Q.    Q.      Q.    Q.    Q     +E   Q.   H        +W
|-------------------|-----------------|-------------------|-----------------|
|-------12----10----|-----------------|-------------------|-----------------|
|-(11)--------------|-12----11----11--|-(11)--9-----------|-----------------|
|--------9-----7----|-----------------|-------------------|-----------------|
|--(9)--------------|-10-----9-----9--|--(9)--7----7------|-(7)-------------|
|-------------------|-----------------|-------------------|-----------------|


 Out-Chorus
  N.C.
  PM----|   PM|       PM  PM|
  E S S E E E E E E   E E E E Q  E E   E H.      +E
|-------------------|----------------|---------------|
|-------------------|----------------|---------------|
|-------------------|----------------|---------------|
|-------------------|----------------|---------------|
|---------7-----5h7-|---7------------|---------------|
|-0-0-0-0---0-0-----|-0---0-0-3--3-6-|-7-6-------(6)-|


  N.C.                        E5 B5   Bb5A5 G5 F#5
  PM----|   PM|       PM  PM|
  E S S E E E E E E   E E E E Q  Q    Q  Q  Q  Q
|-------------------|---------------|-------------|
|-------------------|---------------|-------------|
|-------------------|---------------|-------------|
|-------------------|------------4--|-3--2--------|
|---------7-----5h7-|---7-----2--2--|-1--0--5--4--|
|-0-0-0-0---0-0-----|-0---0-0-0-----|-------3--2--|


  N.C.
  PM----|   PM|       PM  PM|
  E S S E E E E E E   E E E E Q  E E   E H.      +E
|-------------------|----------------|---------------|
|-------------------|----------------|---------------|
|-------------------|----------------|---------------|
|-------------------|----------------|---------------|
|---------7-----5h7-|---7------------|---------------|
|-0-0-0-0---0-0-----|-0---0-0-3--3-6-|-7-6-------(6)-|


                              E5 B5   Bb5A5
  PM----|   PM|       PM  PM|
  E S S E E E E E E   E E E E Q  Q    Q  H.
|-------------------|---------------|----------|
|-------------------|---------------|----------|
|-------------------|---------------|----------|
|-------------------|------------4--|-3--2-----|
|---------7-----5h7-|---7-----2--2--|-1--0-----|
|-0-0-0-0---0-0-----|-0---0-0-0-----|----------|


  N.C.
  PM----|   PM|       PM  PM|
  E S S E E E E E E   E E E E Q  E E   E H.      +E
|-------------------|----------------|---------------|
|-------------------|----------------|---------------|
|-------------------|----------------|---------------|
|-------------------|----------------|---------------|
|---------7-----5h7-|---7------------|---------------|
|-0-0-0-0---0-0-----|-0---0-0-3--3-6-|-7-6-------(6)-|


  N.C.                                              E5
  PM----|   PM|       PM  PM|                       PM-|
  E S S E E E E E E   E E E E Q  Q    Q  Q  Q  Q    Q  Q  H      W
|-------------------|---------------|-------------|------------|------*|
|-------------------|---------------|-------------|------------|------*|
|-------------------|---------------|-------------|------------|------*|
|-------------------|---------------|-------------|------------|------*|
|---------7-----5h7-|---7-----------|-------5--6--|-2--2-------|------*|
|-0-0-0-0---0-0-----|-0---0-0-3--5--|-6--7--------|-0--0-------|------*|



Duration Legend
---------------
W - whole; H - half; Q - quarter; E - 8th; S - 16th; T - 32nd; X - 64th; a - acciaccatura
+ - note tied to previous; . - note dotted; .. - note double dotted
Uncapitalized letters represent notes that are staccato (1/2 duration)
Irregular groupings are notated above the duration line
Duration letters will always appear directly above the note/fret number it represents the
duration for.  Duration letters with no fret number below them represent rests.  Multi-
bar rests are notated in the form Wxn, where n is the number of bars to rest for.  Low
melody durations appear below the staff

Tablature Legend
----------------
 h   - hammer-on
 p   - pull-off
 b   - bend
 pb  - pre-bend
 r   - bend release (if no number after the r, then release immediately)
 /\  - slide into or out of (from/to "nowhere")
 s   - legato slide
 S   - shift slide
 - natural harmonic
[n]  - artificial harmonic
n(n) - tapped harmonic
 ~   - vibrato
 tr  - trill
 T   - tap
 TP  - trem. picking
 PM  - palm muting
\n/  - tremolo bar dip; n = amount to dip
 \n  - tremolo bar down
 n/  - tremolo bar up
/n\  - tremolo bar inverted dip
 =   - hold bend; also acts as connecting device for hammers/pulls
 <> - volume swell (louder/softer)
 x   - on rhythm slash represents muted slash
 o   - on rhythm slash represents single note slash

Misc Legend
-----------
 |  - bar
||  - double bar
||o - repeat start
o|| - repeat end
*|  - double bar (ending)
 :  - bar (freetime)
 $  - Segno
 &  - Coda
Tempo markers -  = BPM(8/16=s8/s16), where s8 = swing 8ths, s16 = swing 16ths

Related for Slaughter Of The Soul tab