Song name
# A B C D E F G H I J K L M N O P Q R S T U V W X Y Z

At The Gates - Under A Serpent Sun tab

Help us improve GuitareTab! Take a short survey!
#----------------------------------PLEASE NOTE---------------------------------#
#This file is the author's own work and represents their interpretation of the #
#song. You may only use this file for private study, scholarship, or research. #
#------------------------------------------------------------------------------#

UNDER A SERPENT SUN
As recorded by At The Gates
(From the 1995 Album SLAUGHTER OF THE SOUL)

Transcribed by Diego Torres Cabezas
	

Words by T.Lindberg Music by A.Bjorler / J.Bjorler / AT THE GATES

Gtr I (B E A D F# B) - 'Untitled'
Gtr II (B E A D F# B) - 'Untitled'
Gtr III (B E A D F# B) - 'Untitled'

   Intro Riff
    Q=152
   4/4
    Gtrs I, II
    S S S S S S S S S S S S S S S S   S S S S S S S S S S S S S S S S
||----------------------------------|---------------------------------|
||o---------------------------------|---------------------------------|
||----------------------------------|---------------------------------|
||----------------------------------|---------------------------------|
||o---------3-3-3-3-----------------|---------3-3-3-3-----------------|
||--1-1-1-1---------4-4-4-4-4-4-4-4-|-1-1-1-1---------4-4-4-4-4-4-4-4-|


  S S S S S S S S S S S S S S S S   S S S S  S  S  S  S S S S S S S S S
|---------------------------------|---------------------------------------||
|---------------------------------|--------------------------------------o||
|---------------------------------|---------------------------------------||
|-----------------9-9-9-9---------|---------10-10-10-10-------------------||
|---------7-7-7-7-----------------|-7-7-7-7---------------------7-7-7-7--o||
|-5-5-5-5-----------------5-5-5-5-|---------------------5-5-5-5-----------||


   Riff 1
    Gtr I
    S S S S S S S S S S S S S S S S   S S S S S S S S  S  S S S S S S S
||----------------------------------|-----------------------------------|
||o---------------------------------|-----------------------------------|
||----------------------------------|-----------------------------------|
||----------------------------------|-----------------------------------|
||o---------3-3-3-3-----------------|---------3-3-3-3-------------------|
||--1-1-1-1---------4-4-4-4-4-4-4-4-|-1-1-1-1----------4--4-4-4-4-4-4-4-|
|
|   Gtr II
|   W                                 H               +Q        E   E
||----------------------------------|-----------------------------------|
||o---------------------------------|-----------------------------------|
||----------------------------------|-----------------------------------|
||--3-------------------------------|-3---------------(3)-------3---6---|
||o---------------------------------|-----------------------------------|
||--1-------------------------------|-1---------------(1)-------1---4---|


  S S S S S S S S  S  S S S S S S S    S S S S  S  S  S  S S S S S S S S S
|-----------------------------------|----------------------------------------||
|-----------------------------------|---------------------------------------o||
|-----------------------------------|----------------------------------------||
|------------------9--9-9-9---------|----------10-10-10-10-------------------||
|---------7-7-7-7-------------------|--7-7-7-7---------------------7-7-7-7--o||
|-5-5-5-5-------------------5-5-5-5-|----------------------5-5-5-5-----------||
|
| H               +Q        Q          H                   H
|-----------------------------------|----------------------------------------||
|-----------------------------------|---------------------------------------o||
|-----------------------------------|----------------------------------------||
|-7---------------(7)-------9-------|-10-------------------------------------||
|-----------------------------------|----------------------2----------------o||
|-5---------------(5)-------7-------|--8-------------------0-----------------||


   Riff 2
   11/8
    Gtrs I, II
    PM-------------------------------------------
    S S S S S S S S S S S S S S S S S S S S S S
||----------------------------------------------|
||o---------------------------------------------|
||----------------------------------------------|
||----------------------------------------------|
||o---------------------------------------------|
||--0-0-0---0---0-0-0---1-1-1---1---1-1-1-1-1-1-|


 -------------------------------------------|
  S S S S S S S S S S S S S S S S S S S S S S
|----------------------------------------------||
|---------------------------------------------o||
|----------------------------------------------||
|----------------------------------------------||
|---------------------------------------------o||
|-3-3-3---3---3-3-3---1-1-1---1---1-1-1-1-1-1--||


   11/8
    Gtr I
    PM---------------------------------------------
    S S S S  S S S S S S S S S S  S S S S S S S S
||------------------------------------------------|
||o-----------------------------------------------|
||------------------------------------------------|
||------------------------------------------------|
||o-----------------------------------------------|
||--1-1-1----1---1-1-1---1-1-1----1---1-1-1-1-1-1-|
|
|   Gtr II
|   Q        E   Q       Q        H
||-----------8--------------------9---------------|
||o----------9-------------------10---------------|
||----------10-------------------11---------------|
||----------10-------------------11---------------|
||o-8--------8---8-------9--------9---------------|
||------------------------------------------------|


 --------------------------------------------|
  S S S S  S S S S S S S S S S S S S S S S S S
|-----------------------------------------------||
|----------------------------------------------o||
|-----------------------------------------------||
|-----------------------------------------------||
|----------------------------------------------o||
|-1-1-1----1---1-1-1---1-1-1---1---1-1-1-1-1-1--||
|
| Q        E   Q       Q       H
|----------8-------------------7----------------||
|----------9-------------------8---------------o||
|---------10-------------------9----------------||
|---------10-------------------9----------------||
|-8--------8---8-------7-------7---------------o||
|-----------------------------------------------||


   Riff 1
   4/4
    Gtr I
    S S S S S S S S S S S S S S S S   S S S S S S S S  S  S S S S S S S
||----------------------------------|-----------------------------------|
||o---------------------------------|-----------------------------------|
||----------------------------------|-----------------------------------|
||----------------------------------|-----------------------------------|
||o---------3-3-3-3-----------------|---------3-3-3-3-------------------|
||--1-1-1-1---------4-4-4-4-4-4-4-4-|-1-1-1-1----------4--4-4-4-4-4-4-4-|
|
|   Gtr II
|   W                                 H               +Q        E   E
||----------------------------------|-----------------------------------|
||o---------------------------------|-----------------------------------|
||----------------------------------|-----------------------------------|
||--3-------------------------------|-3---------------(3)-------3---6---|
||o---------------------------------|-----------------------------------|
||--1-------------------------------|-1---------------(1)-------1---4---|


  S S S S S S S S  S  S S S S S S S    S S S S  S  S  S  S S S S S S S S S
|-----------------------------------|----------------------------------------||
|-----------------------------------|---------------------------------------o||
|-----------------------------------|----------------------------------------||
|------------------9--9-9-9---------|----------10-10-10-10-------------------||
|---------7-7-7-7-------------------|--7-7-7-7---------------------7-7-7-7--o||
|-5-5-5-5-------------------5-5-5-5-|----------------------5-5-5-5-----------||
|
| H               +Q        Q          H                   H
|-----------------------------------|----------------------------------------||
|-----------------------------------|---------------------------------------o||
|-----------------------------------|----------------------------------------||
|-7---------------(7)-------9-------|-10-------------------------------------||
|-----------------------------------|----------------------2----------------o||
|-5---------------(5)-------7-------|--8-------------------0-----------------||


 Fill 1
 6/4
  Gtrs I, II
  W        +H       W        +H
|-----------------|-----------------|
|-----------------|-----------------|
|-----------------|-----------------|
|-----------------|-----------------|
|-2--------(2)----|-2--------(2)----|
|-0--------(0)----|-0--------(0)----|


 Riff 3
 4/4
  Gtr I
  W                                W
|--------------------------------|------------------------------|
|--------------------------------|------------------------------|
|--------------------------------|------------------------------|
|--------------------------------|------------------------------|
|--------------------------------|------------------------------|
|--------------------------------|------------------------------|
|
| Gtr II
|   PM--|      PM      PM  PM--|     PM--|      PM      PM-------
|   |-3-|  |-3-|  |-3--|   |-3-|     |-3-|  |-3-|  |-3--| |-3-|
| E S S S  E E E  E  E E E S S S   E S S S  E E E  E  E E E E E
|--------------------------------|------------------------------|
|--------------------------------|------------------------------|
|--------------------------------|------------------------------|
|--------------------------------|------------------------------|
|-2-------10p9---12p10-----------|---------10p9---12p10---------|
|-0-0-0-0------0-------0-0-0-0-0-|-0-0-0-0------0-------0-7-7-7-|


  PM------------------|
  |-3-| |-3-| |-3-| |-3-|       |-3-|
  E E E E E E E E E E E E   E E E E E Q  +Q
|-------------------------|---------------------|
|-------------------------|---------------------|
|-------------------------|---------------------|
|-------------------------|---------------------|
|-------------------------|---------------------|
|-8-8-8-8-8-8-8-8-8-8-8-8-|-0h2-2-2-0-3--(3)----|
|
|---------------------|
| |-3-| |-3-| |-3-| |-3-|       |-3-|
| E E E E E E E E E E E E   E E E E E Q  +Q
|-------------------------|---------------------|
|-------------------------|---------------------|
|-------------------------|---------------------|
|-------------------------|---------------------|
|-------------------------|---------------------|
|-8-8-8-8-8-8-8-8-8-8-8-8-|-0h2-2-2-0-3--(3)----|


  Gtrs I, II
    PM--|      PM      PM  PM--|     PM--|      PM      PM-------
    |-3-|  |-3-|  |-3--|   |-3-|     |-3-|  |-3-|  |-3--| |-3-|
  E S S S  E E E  E  E E E S S S   E S S S  E E E  E  E E E E E
|--------------------------------|------------------------------|
|--------------------------------|------------------------------|
|--------------------------------|------------------------------|
|--------------------------------|------------------------------|
|-2-------10p9---12p10-----------|---------10p9---12p10---------|
|-0-0-0-0------0-------0-0-0-0-0-|-0-0-0-0------0-------0-7-7-7-|


 ---------------------|
  |-3-| |-3-| |-3-| |-3-|       |-3-|
  E E E E E E E E E E E E   E E E E E Q  +Q
|-------------------------|---------------------|
|-------------------------|---------------------|
|-------------------------|---------------------|
|-------------------------|---------------------|
|-------------------------|---------------------|
|-8-8-8-8-8-8-8-8-8-8-8-8-|-0h2-2-2-0-6--(6)----|


   Riff 4
    Gtr I
         PM--|              PM---|
         |-3-|              |-3--|
    Q    E E E  Q           E  E E
||---------------------------------|
||o--------------------------------|
||---------------------------------|
||---------------------------------|
||o-2-----------2------------------|
||--0----0-0-0--0-----------0--0-0-|
|
|   Gtr II
|     PM     PM    ~~~~~~~~~~~~
|        |-3-|  |--3---|
|   E E  E E E  E  E  +E   +Q
||---------------------------------|
||o--------------------------------|
||---------------------------------|
||---------------------------------|
||o-2---10p9---12-10-(10)-(10)-----|
||--0-0------0---------------------|


       PM--|
       |-3-|                                |-3-|
  Q    E E E  Q         Q    W           Q  E E E Q  Q
|--------------------------|----------|---------------------||
|--------------------------|----------|--------------------o||
|--------------------------|----------|---------------------||
|-----------------------7--|-5--------|--5------------------||
|-2-----------2---------5--|-3--------|--3--2h3p2-5--4-----o||
|-0----0-0-0--0------------|----------|-----------3--2------||
|
|   PM     PM    ~~~~~~~     ~
|      |-3-|  |--3---|                               |-3-|
| E E  E E E  E  E  +E  Q    W           Q  Q     Q  E E E
|--------------------------|----------|---------------------||
|--------------------------|----------|--------------------o||
|--------------------------|----------|---------------------||
|--------------------------|----------|---------------------||
|-2---10p9---12-10-(10)-9--|-7--------|-10--9-----7--6h7p6-o||
|-0-0------0---------------|----------|---------------------||


   Intro Riff
    Gtrs I, II
    S S S S S S S S S S S S S S S S   S S S S S S S S S S S S S S S S
||----------------------------------|---------------------------------|
||o---------------------------------|---------------------------------|
||----------------------------------|---------------------------------|
||----------------------------------|---------------------------------|
||o---------3-3-3-3-----------------|---------3-3-3-3-----------------|
||--1-1-1-1---------4-4-4-4-4-4-4-4-|-1-1-1-1---------4-4-4-4-4-4-4-4-|


  S S S S S S S S S S S S S S S S   S S S S  S  S  S  S S S S S S S S S
|---------------------------------|---------------------------------------||
|---------------------------------|--------------------------------------o||
|---------------------------------|---------------------------------------||
|-----------------9-9-9-9---------|---------10-10-10-10-------------------||
|---------7-7-7-7-----------------|-7-7-7-7---------------------7-7-7-7--o||
|-5-5-5-5-----------------5-5-5-5-|---------------------5-5-5-5-----------||


 Riff 3
  Gtrs I, II
    PM--|      PM      PM  PM--|     PM--|      PM      PM-------
    |-3-|  |-3-|  |-3--|   |-3-|     |-3-|  |-3-|  |-3--| |-3-|
  E S S S  E E E  E  E E E S S S   E S S S  E E E  E  E E E E E
|--------------------------------|------------------------------|
|--------------------------------|------------------------------|
|--------------------------------|------------------------------|
|--------------------------------|------------------------------|
|-2-------10p9---12p10-----------|---------10p9---12p10---------|
|-0-0-0-0------0-------0-0-0-0-0-|-0-0-0-0------0-------0-7-7-7-|


 ---------------------|
  |-3-| |-3-| |-3-| |-3-|       |-3-|
  E E E E E E E E E E E E   E E E E E Q  +Q
|-------------------------|---------------------|
|-------------------------|---------------------|
|-------------------------|---------------------|
|-------------------------|---------------------|
|-------------------------|---------------------|
|-8-8-8-8-8-8-8-8-8-8-8-8-|-0h2-2-2-0-3--(3)----|


  Gtrs I, II
    PM--|      PM      PM  PM--|     PM--|      PM      PM-------
    |-3-|  |-3-|  |-3--|   |-3-|     |-3-|  |-3-|  |-3--| |-3-|
  E S S S  E E E  E  E E E S S S   E S S S  E E E  E  E E E E E
|--------------------------------|------------------------------|
|--------------------------------|------------------------------|
|--------------------------------|------------------------------|
|--------------------------------|------------------------------|
|-2-------10p9---12p10-----------|---------10p9---12p10---------|
|-0-0-0-0------0-------0-0-0-0-0-|-0-0-0-0------0-------0-7-7-7-|


 ---------------------|
  |-3-| |-3-| |-3-| |-3-|       |-3-|
  E E E E E E E E E E E E   E E E E E Q  +Q
|-------------------------|---------------------|
|-------------------------|---------------------|
|-------------------------|---------------------|
|-------------------------|---------------------|
|-------------------------|---------------------|
|-8-8-8-8-8-8-8-8-8-8-8-8-|-0h2-2-2-0-6--(6)----|


   Riff 4
    Gtr I
         PM--|              PM---|
         |-3-|              |-3--|
    Q    E E E  Q           E  E E
||---------------------------------|
||o--------------------------------|
||---------------------------------|
||---------------------------------|
||o-2-----------2------------------|
||--0----0-0-0--0-----------0--0-0-|
|
|   Gtr II
|     PM     PM    ~~~~~~~~~~~~
|        |-3-|  |--3---|
|   E E  E E E  E  E  +E   +Q
||---------------------------------|
||o--------------------------------|
||---------------------------------|
||---------------------------------|
||o-2---10p9---12-10-(10)-(10)-----|
||--0-0------0---------------------|


       PM--|
       |-3-|                                |-3-|
  Q    E E E  Q         Q    W           Q  E E E Q  Q
|--------------------------|----------|---------------------||
|--------------------------|----------|--------------------o||
|--------------------------|----------|---------------------||
|-----------------------7--|-5--------|--5------------------||
|-2-----------2---------5--|-3--------|--3--2h3p2-5--4-----o||
|-0----0-0-0--0------------|----------|-----------3--2------||
|
|   PM     PM    ~~~~~~~     ~
|      |-3-|  |--3---|                               |-3-|
| E E  E E E  E  E  +E  Q    W           Q  Q     Q  E E E
|--------------------------|----------|---------------------||
|--------------------------|----------|--------------------o||
|--------------------------|----------|---------------------||
|--------------------------|----------|---------------------||
|-2---10p9---12-10-(10)-9--|-7--------|-10--9-----7--6h7p6-o||
|-0-0------0---------------|----------|---------------------||


   Solo
    Gtr I
                               |--3---|
     H                +Q      +E  +E  E   W
||--------------------------------------|-------------------------|
||o-------------------------------------|-------------------------|
||--------------------------------------|-------------------------|
||---2----------------(2)-----(2)-(2)-4-|-5-----------------------|
||o--2----------------(2)-----(2)-(2)---|-------------------------|
||---0----------------(0)-----(0)-(0)-2-|-3-----------------------|
|
|   Gtr II
|    |--3--|  |--3--|  |-3--|  |--3---|   |-3-| |-3-| |-3-| |-3-|
|    E  E  E  E  E  E  E  E E  E   E  E   E E E E E E E E E E E E
||---7--7--7--7--7--7--7--7-7--7---7--7-|-5-5-5-5-5-5-5-5-5-5-5-5-|
||o-10-10-10-10-10-10--8--8-8--8---8--8-|-8-8-8-8-8-8-7-7-7-7-7-7-|
||--------------------------------------|-------------------------|
||--------------------------------------|-------------------------|
||o-------------------------------------|-------------------------|
||--------------------------------------|-------------------------|


                                   |--3---|
  W                         Q     +E  +E  E H
|-------------------------|-------------------------------|
|-------------------------|-------------------------------|
|-4-----------------------|-5-----(5)-(5)-4-2-------------|
|-------------------------|-------------------------------|
|-2-----------------------|-3-----(3)-(3)-2-0-------------|
|-------------------------|-------------------------------|
|
| |-3-| |-3-| |-3-| |-3-|   |-3-|  |--3---| |-3-| |-3-|
| E E E E E E E E E E E E   E E E  E   E  E E E E E E E
|-3-3-3-3-3-3-3-3-3-3-3-3-|-2-2-2--2---2--2-2-2-2-2-2-2---|
|-7-7-7-7-7-7-5-5-5-5-5-5-|-5-5-5--5---5--5-4-4-4-4-4-4---|
|-------------------------|-------------------------------|
|-------------------------|-------------------------------|
|-------------------------|-------------------------------|
|-------------------------|-------------------------------|


  W                         W
|-------------------------|-------------------------|
|-------------------------|-------------------------|
|-7-----------------------|-5-----------------------|
|-------------------------|-------------------------|
|-5-----------------------|-3-----------------------|
|-------------------------|-------------------------|
|
| |-3-| |-3-| |-3-| |-3-|   |-3-| |-3-| |-3-| |-3-|
| E E E E E E E E E E E E   E E E E E E E E E E E E
|-5-5-5-5-5-5-5-5-5-5-5-5-|-3-3-3-3-3-3-3-3-3-3-3-3-|
|-8-8-8-8-8-8-7-7-7-7-7-7-|-7-7-7-7-7-7-5-5-5-5-5-5-|
|-------------------------|-------------------------|
|-------------------------|-------------------------|
|-------------------------|-------------------------|
|-------------------------|-------------------------|


         |--3---|
  Q     +E  +E  E Q     Q       Q  Q  H
|-----------------------------|-------------||
|-----------------------------|------------o||
|-4-----(4)-(4)-2-------------|-------------||
|-----------------5-----4-----|-2--4--5-----||
|-2-----(2)-(2)-0-------------|------------o||
|-----------------3-----2-----|-0--2--3-----||
|
| |-3-|  |--3---| |-3-| |-3-|
| E E E  E   E  E E E E E E E   W
|-2-2-2--2---2--2-2-2-2-2-2-2-|-3-----------||
|-5-5-5--5---5--5-4-4-4-4-4-4-|-5----------o||
|-----------------------------|-------------||
|-----------------------------|-------------||
|-----------------------------|------------o||
|-----------------------------|-------------||


 Riff 3
  Gtrs I, II
    PM--|      PM      PM  PM--|     PM--|      PM      PM-------
    |-3-|  |-3-|  |-3--|   |-3-|     |-3-|  |-3-|  |-3--| |-3-|
  E S S S  E E E  E  E E E S S S   E S S S  E E E  E  E E E E E
|--------------------------------|------------------------------|
|--------------------------------|------------------------------|
|--------------------------------|------------------------------|
|--------------------------------|------------------------------|
|-2-------10p9---12p10-----------|---------10p9---12p10---------|
|-0-0-0-0------0-------0-0-0-0-0-|-0-0-0-0------0-------0-7-7-7-|


 ---------------------|
  |-3-| |-3-| |-3-| |-3-|       |-3-|
  E E E E E E E E E E E E   E E E E E Q  +Q
|-------------------------|---------------------|
|-------------------------|---------------------|
|-------------------------|---------------------|
|-------------------------|---------------------|
|-------------------------|---------------------|
|-8-8-8-8-8-8-8-8-8-8-8-8-|-0h2-2-2-0-3--(3)----|


  Gtrs I, II
    PM--|      PM      PM  PM--|     PM--|      PM      PM-------
    |-3-|  |-3-|  |-3--|   |-3-|     |-3-|  |-3-|  |-3--| |-3-|
  E S S S  E E E  E  E E E S S S   E S S S  E E E  E  E E E E E
|--------------------------------|------------------------------|
|--------------------------------|------------------------------|
|--------------------------------|------------------------------|
|--------------------------------|------------------------------|
|-2-------10p9---12p10-----------|---------10p9---12p10---------|
|-0-0-0-0------0-------0-0-0-0-0-|-0-0-0-0------0-------0-7-7-7-|


 ---------------------|
  |-3-| |-3-| |-3-| |-3-|       |-3-|
  E E E E E E E E E E E E   E E E E E Q  +Q
|-------------------------|---------------------|
|-------------------------|---------------------|
|-------------------------|---------------------|
|-------------------------|---------------------|
|-------------------------|---------------------|
|-8-8-8-8-8-8-8-8-8-8-8-8-|-0h2-2-2-0-6--(6)----|


   Riff 4
    Gtr I
         PM--|              PM---|
         |-3-|              |-3--|
    Q    E E E  Q           E  E E
||---------------------------------|
||o--------------------------------|
||---------------------------------|
||---------------------------------|
||o-2-----------2------------------|
||--0----0-0-0--0-----------0--0-0-|
|
|   Gtr II
|     PM     PM    ~~~~~~~~~~~~
|        |-3-|  |--3---|
|   E E  E E E  E  E  +E   +Q
||---------------------------------|
||o--------------------------------|
||---------------------------------|
||---------------------------------|
||o-2---10p9---12-10-(10)-(10)-----|
||--0-0------0---------------------|


       PM--|
       |-3-|                                |-3-|
  Q    E E E  Q         Q    W           Q  E E E Q  Q
|--------------------------|----------|---------------------||
|--------------------------|----------|--------------------o||
|--------------------------|----------|---------------------||
|-----------------------7--|-5--------|--5------------------||
|-2-----------2---------5--|-3--------|--3--2h3p2-5--4-----o||
|-0----0-0-0--0------------|----------|-----------3--2------||
|
|   PM     PM    ~~~~~~~     ~
|      |-3-|  |--3---|                               |-3-|
| E E  E E E  E  E  +E  Q    W           Q  Q     Q  E E E
|--------------------------|----------|---------------------||
|--------------------------|----------|--------------------o||
|--------------------------|----------|---------------------||
|--------------------------|----------|---------------------||
|-2---10p9---12-10-(10)-9--|-7--------|-10--9-----7--6h7p6-o||
|-0-0------0---------------|----------|---------------------||


 Acoustic Part
  Gtr I
  W                 W                 W                 W
|-----------------|-----------------|-----------------|-----------------|
|-----------------|-----------------|-----------------|-----------------|
|-----------------|-----------------|-----------------|-----------------|
|-----------------|-----------------|-----------------|-----------------|
|-----------------|-----------------|-----------------|-----------------|
|-----------------|-----------------|-----------------|-----------------|
|
| Gtr III
| E E E E E E E E   E E E E E E E E   E E E E E E E E   E E E E E E E E
|-----0-----0-----|-----0-----0-----|-----0-----0-----|-----0-----0-----|
|-----------------|-----------------|-----------------|-----------------|
|---3-----3-----3-|---3-----3-----3-|---3-----3-----3-|---3-----3-----3-|
|-----------------|-----------------|-----------------|-----------------|
|-----------------|-----------------|-----------------|-----------------|
|-3-----3-----3---|-3-----3-----3---|-2-----2-----2---|-2-----2-----2---|


  Gtr I
  W                 +W                  W                 W
|-----------------|-------------------|-----------------|-----------------|
|-----------------|-------------------|-----------------|-----------------|
|-----------------|-------------------|-----------------|-----------------|
|-4---------------|-(4)---------------|-----------------|-----------------|
|-----------------|-------------------|-----------------|-----------------|
|-2---------------|-(2)---------------|-----------------|-----------------|
|
| Gtr III
| E E E E E E E E    E  E E E E E E E   E E E E E E E E   E E E E E E E E
|-----0-----0-----|-------0-----0-----|-----0-----0-----|-----0-----0-----|
|-----------------|-------------------|-----------------|-----------------|
|---2-----2-----2-|-----2-----2-----2-|---2-----2-----2-|---2-----2-----2-|
|-----------------|-------------------|-----------------|-----------------|
|-----------------|-------------------|-----------------|-----------------|
|-2-----2-----2---|--2------2-----2---|-1-----1-----1---|-1-----1-----1---|


  Gtr I
  W                 +H        +Q    +E  E   E E Q   Q   Q     W
|-----------------|-----------------------|-----------------|-----------------|
|-----------------|-----------------------|-----------------|-----------------|
|-----------------|-----------------------|-----------------|-----------------|
|-4---------------|-(4)-------(4)---(4)---|-----------------|-----------------|
|-----------------|---------------------4-|-3-3-------------|-----------------|
|-2---------------|-(2)-------(2)---(2)-2-|-1-1-------------|-----------------|
|
| Gtr III
| E E E E E E E E    E  E E E  E  E  E  E   E E E E E E E E   E E E E E E E E
|-----0-----0-----|-------0-------0-------|-----0-----0-----|-----0-----0-----|
|-----------------|-----------------------|-----------------|-----------------|
|---2-----2-----2-|-----2------2--------2-|---2-----2-----2-|---2-----2-----2-|
|-----------------|-----------------------|-----------------|-----------------|
|-----------------|-----------------------|-----------------|-----------------|
|-2-----2-----2---|--2------2--------2----|-1-----1-----1---|-1-----1-----1---|


    Gtr I
      PM|   PM|         PM|   PM|         PM|   PM|         PM|   PM|
    E E E E E E E E   E E E E E E E E   E E E E E E E E   E E E E E E E E
||------------------|-----------------|-----------------|-------------------||
||o-----------------|-----------------|-----------------|------------------o||
||----------------3-|---------------3-|---------------3-|---------------3---||
||--5-----5-----5---|-5-----5-----5---|-4-----4-----4---|-4-----4-----4-----||
||o-----------------|-----------------|-----------------|------------------o||
||----3-3---3-3-----|---3-3---3-3-----|---2-2---2-2-----|---2-2---2-2-------||
|
|   Gtr III
|   E E E E E E E E   E E E E E E E E   E E E E E E E E   E E E E E E E E
||------0-----0-----|-----0-----0-----|-----0-----0-----|-----0-----0-------||
||o-----------------|-----------------|-----------------|------------------o||
||----3-----3-----3-|---3-----3-----3-|---3-----3-----3-|---3-----3-----3---||
||------------------|-----------------|-----------------|-------------------||
||o-----------------|-----------------|-----------------|------------------o||
||--3-----3-----3---|-3-----3-----3---|-2-----2-----2---|-2-----2-----2-----||


 Riff 5
  Gtrs I, II
    PM|   PM|         PM|   PM|         PM|   PM|         PM|   PM|
  E E E E E E E E   E E E E E E E E   E E E E E E E E   E E E E E E E E
|-----------------|-----------------|-----------------|-----------------|
|-----------------|-----------------|-----------------|-----------------|
|---------------2-|---------------2-|---------------2-|---------------2-|
|-4-----4-----4---|-4-----4-----4---|-3-----3-----3---|-3-----3-----3---|
|-----------------|-----------------|-----------------|-----------------|
|---2-2---2-2-----|---2-2---2-2-----|---1-1---1-1-----|---1-1---1-1-----|


  Gtrs I, II
    PM|   PM|         PM|   PM|         PM|   PM|
  E E E E E E E E   E E E E E E E E   E E E E E E E E   W
|-----------------|-----------------|-----------------|------|
|-----------------|-----------------|-----------------|------|
|---------------2-|---------------2-|---------------2-|------|
|-4-----4-----4---|-4-----4-----4---|-3-----3-----3---|-3----|
|-----------------|-----------------|-----------------|-3----|
|---2-2---2-2-----|---2-2---2-2-----|---1-1---1-1-----|-1----|


   Riff 2
   11/8
    Gtrs I, II
    PM-------------------------------------------
    S S S S S S S S S S S S S S S S S S S S S S
||----------------------------------------------|
||o---------------------------------------------|
||----------------------------------------------|
||----------------------------------------------|
||o---------------------------------------------|
||--0-0-0---0---0-0-0---1-1-1---1---1-1-1-1-1-1-|


 -------------------------------------------|
  S S S S S S S S S S S S S S S S S S S S S S
|----------------------------------------------||
|---------------------------------------------o||
|----------------------------------------------||
|----------------------------------------------||
|---------------------------------------------o||
|-3-3-3---3---3-3-3---1-1-1---1---1-1-1-1-1-1--||


   11/8
    Gtr I
    PM---------------------------------------------
    S S S S  S S S S S S S S S S  S S S S S S S S
||------------------------------------------------|
||o-----------------------------------------------|
||------------------------------------------------|
||------------------------------------------------|
||o-----------------------------------------------|
||--1-1-1----1---1-1-1---1-1-1----1---1-1-1-1-1-1-|
|
|   Gtr II
|   Q        E   Q       Q        H
||-----------8--------------------9---------------|
||o----------9-------------------10---------------|
||----------10-------------------11---------------|
||----------10-------------------11---------------|
||o-8--------8---8-------9--------9---------------|
||------------------------------------------------|


 --------------------------------------------|
  S S S S  S S S S S S S S S S S S S S S S S S
|-----------------------------------------------||
|----------------------------------------------o||
|-----------------------------------------------||
|-----------------------------------------------||
|----------------------------------------------o||
|-1-1-1----1---1-1-1---1-1-1---1---1-1-1-1-1-1--||
|
| Q        E   Q       Q       H
|----------8-------------------7----------------||
|----------9-------------------8---------------o||
|---------10-------------------9----------------||
|---------10-------------------9----------------||
|-8--------8---8-------7-------7---------------o||
|-----------------------------------------------||


 Ending
 4/4
  Gtrs I, II
  TPTP
  E E Q  H
|-------------*|
|-------------*|
|-------------*|
|-------------*|
|-----2-------*|
|-3-1-0-------*|



Duration Legend
---------------
W - whole; H - half; Q - quarter; E - 8th; S - 16th; T - 32nd; X - 64th; a - acciaccatura
+ - note tied to previous; . - note dotted; .. - note double dotted
Uncapitalized letters represent notes that are staccato (1/2 duration)
Irregular groupings are notated above the duration line
Duration letters will always appear directly above the note/fret number it represents the
duration for.  Duration letters with no fret number below them represent rests.  Multi-
bar rests are notated in the form Wxn, where n is the number of bars to rest for.  Low
melody durations appear below the staff

Tablature Legend
----------------
 h   - hammer-on
 p   - pull-off
 b   - bend
 pb  - pre-bend
 r   - bend release (if no number after the r, then release immediately)
 /\  - slide into or out of (from/to "nowhere")
 s   - legato slide
 S   - shift slide
 - natural harmonic
[n]  - artificial harmonic
n(n) - tapped harmonic
 ~   - vibrato
 tr  - trill
 T   - tap
 TP  - trem. picking
 PM  - palm muting
\n/  - tremolo bar dip; n = amount to dip
 \n  - tremolo bar down
 n/  - tremolo bar up
/n\  - tremolo bar inverted dip
 =   - hold bend; also acts as connecting device for hammers/pulls
 <> - volume swell (louder/softer)
 x   - on rhythm slash represents muted slash
 o   - on rhythm slash represents single note slash

Misc Legend
-----------
 |  - bar
||  - double bar
||o - repeat start
o|| - repeat end
*|  - double bar (ending)
 :  - bar (freetime)
 $  - Segno
 &  - Coda
Tempo markers -  = BPM(8/16=s8/s16), where s8 = swing 8ths, s16 = swing 16ths

Related for Under A Serpent Sun tab