Song name
# A B C D E F G H I J K L M N O P Q R S T U V W X Y Z

At The Gates - Nausea tab

#----------------------------------PLEASE NOTE---------------------------------#
#This file is the author's own work and represents their interpretation of the #
#song. You may only use this file for private study, scholarship, or research. #
#------------------------------------------------------------------------------#

NAUSEA
As recorded by At the Gates
(From the 1995 Album SLAUGHTER OF THE SOUL)

Transcribed by Skeletor
	

Words by Tomas Lindberg Music by A. Björler/J.Björler/At the Gates

Gtr I (B E A D Gb B) - 'Untitled'
Gtr II (B E A D Gb B) - 'Untitled'

 Intro
  Very fast Q=230
                                                  G#5
 4/4
  Gtr I
                                              PM|
  S S S S S S S S S S E S S S S   S S E S S E E E Q
|-------------------------------|--------------------|
|-------------------------------|--------------------|
|-------------------------------|-----------------1--|
|-------------------------------|-----------------1--|
|-0-0-0-0-0-0-0-0-3p1p0-0-0-0-0-|-3p1p0-3p1p0-0-0----|
|-------------------------------|--------------------|
|
| Gtr II
| W                               W
|-------------------------------|--------------------|
|-------------------------------|--------------------|
|-------------------------------|--------------------|
|-------------------------------|--------------------|
|-------------------------------|--------------------|
|-------------------------------|--------------------|


                                                  G#5
                                              PM|
  S S S S S S S S S S E S S S S   S S E S S E E E Q
|-------------------------------|----------------------|
|-------------------------------|----------------------|
|-------------------------------|-----------------1----|
|-------------------------------|-----------------1----|
|-0-0-0-0-0-0-0-0-3p1p0-0-0-0-0-|-3p1p0-3p1p0-0-0------|
|-------------------------------|----------------------|
|
|                                             PM|
| S S S S S S S S S S E S S S S   S S E S S E E E Q
|-------------------------------|----------------------|
|-------------------------------|----------------------|
|-------------------------------|-----------------1----|
|-------------------------------|-----------------1----|
|-0-0-0-0-0-0-0-0-3p1p0-0-0-0-0-|-3p1p0-3p1p0-0-0------|
|-------------------------------|----------------------|


                                                    G#5
    Gtrs I, II
                                                PM|
    S S S S S S S S S S E S S S S   S S E S S E E E Q   4x
||--------------------------------|---------------------||
||o-------------------------------|--------------------o||
||--------------------------------|-----------------1---||
||--------------------------------|-----------------1---||
||o-0-0-0-0-0-0-0-0-3p1p0-0-0-0-0-|-3p1p0-3p1p0-0-0----o||
||--------------------------------|---------------------||


                                    Eb5
      PM--------------------------|
      E E E E E E E E   E E E E E E Q
|-||------------------|------------------||
|-||o-----------------|-----------------o||
|-||------------------|------------------||
|-||------------------|-------------1----||
|-||o-----------------|-------------1---o||
|-||--0-0-0-0-3-1-0-0-|-3-1-3-1-0-0------||


   Verse
    $
                                                    G#5
                                                PM|
    S S S S S S S S S S E S S S S   S S E S S E E E Q   4x
||--------------------------------|---------------------||
||o-------------------------------|--------------------o||
||--------------------------------|-----------------1---||
||--------------------------------|-----------------1---||
||o-0-0-0-0-0-0-0-0-3p1p0-0-0-0-0-|-3p1p0-3p1p0-0-0----o||
||--------------------------------|---------------------||


                                    Eb5
      PM--------------------------|
      E E E E E E E E   E E E E E E Q
|-||------------------|------------------||
|-||o-----------------|-----------------o||
|-||------------------|------------------||
|-||------------------|-------------1----||
|-||o-----------------|-------------1---o||
|-||--0-0-0-0-3-1-0-0-|-3-1-3-1-0-0------||


   Chorus
    $$
    (Em)                      (C)
   3/4
    Gtr I
     Q   Q  Q     Q   Q  Q    Q   Q  Q     Q   Q  Q
||-------------|------------|-----------|------------|
||o------------|------------|-----------|------------|
||-------------|------------|-----------|------------|
||-------------|------------|-----------|------------|
||o-10---------|-10---------|-9---------|--9---------|
||-------7--0--|------7--0--|-----8--5--|------8--5--|
|
|   Gtr II
|    H.          +H.          H.          +H.
||-------------|------------|-----------|------------|
||o------------|------------|-----------|------------|
||---9---------|-(9)--------|-5---------|-(5)--------|
||-------------|------------|-----------|------------|
||o--7---------|-(7)--------|-3---------|-(3)--------|
||---0---------|-(0)--------|-----------|------------|


                                          To Coda
                                          To Coda
  (G)                       (F#m)       (Bm)
   Q   Q  Q     Q   Q  Q    Q   Q  Q    Q   Q  Q
|------------|------------|-----------|-------------||
|------------|------------|-----------|------------o||
|------------|------------|-----------|-------------||
|------------|------------|-----------|-------------||
|-10---------|-10---------|-9---------|-9------7---o||
|------7--0--|------7--0--|-----8--5--|-----7-------||
|
|  H.          +H.          H.          H.
|------------|------------|-----------|-------------||
|------------|------------|-----------|------------o||
|------------|------------|-----------|-4-----------||
|--5---------|-(5)--------|-4---------|-------------||
|------------|------------|-----------|-2----------o||
|--3---------|-(3)--------|-2---------|-------------||


                                  Eb5
   4/4
    Gtr I
    PM--------------------------|        PM---------------
    E E E E E E E E   E E E E E E Q      E E E E E E E E
||------------------|-----------------||-----------------|
||o-----------------|----------------o||-----------------|
||------------------|-----------------||-----------------|
||------------------|-------------1---||-----------------|
||o-----------------|-------------1--o||-----------------|
||--0-0-0-0-3-1-0-0-|-3-1-3-1-0-0-----||-0-0-0-0-3-1-0-0-|
|
|   Gtr II
|   PM--------------------------|
|   E E E E E E E E   E E E E E E Q      W
||------------------|-----------------||-----------------|
||o-----------------|----------------o||-----------------|
||------------------|-----------------||-----------------|
||------------------|-------------1---||-----------------|
||o-----------------|-------------1--o||-----------------|
||--0-0-0-0-3-1-0-0-|-3-1-3-1-0-0-----||-----------------|


                                       D.S. al Coda
              Eb5                                Eb5
 -----------|      PM--------------------------|
  E E E E E E Q    E E E E E E E E   E E E E E E Q
|----------------|-----------------|-------------------|
|----------------|-----------------|-------------------|
|----------------|-----------------|-------------------|
|-------------1--|-----------------|-------------1-----|
|-------------1--|-----------------|-------------1-----|
|-3-1-3-1-0-0----|-0-0-0-0-3-1-0-0-|-3-1-3-1-0-0-------|
|
|                  PM--------------------------|
| W                E E E E E E E E   E E E E E E Q
|----------------|-----------------|-------------------|
|----------------|-----------------|-------------------|
|----------------|-----------------|-------------------|
|----------------|-----------------|-------------1-----|
|----------------|-----------------|-------------1-----|
|----------------|-0-0-0-0-3-1-0-0-|-3-1-3-1-0-0-------|


    &
    N.C.
    Gtrs I, II
      PM|   PM|   PM    PM|   PM|   PM    PM|   PM|   PM--------|     ~
    E E E E E E E E   E E E E E E E E   E E E E E E E E   E E E E E E Q
||------------------|-----------------|-----------------|-----------------|
||o-----------------|-----------------|-----------------|-----------------|
||------------------|-----------------|-----------------|-----------------|
||------------------|-----------------|-----------------|-----------------|
||o-2-----2-----2---|-1-----1-----1---|-2-----2-----2---|-------2-2S1-5---|
||----0-0---0-0---0-|---0-0---0-0---0-|---0-0---0-0---0-|-0-2-3-----------|


                                                        To Dbl. Coda
                                                                  Eb5
    PM|   PM|   PM    PM|   PM|   PM    PM|   PM|   PM  ~     PM|
  E E E E E E E E   E E E E E E E E   E E E E E E E E   Q  Q  E E Q
|-----------------|-----------------|-----------------|---------------||
|-----------------|-----------------|-----------------|--------------o||
|-----------------|-----------------|-----------------|---------------||
|-----------------|-----------------|-----------------|-----------1---||
|-2-----2-----2---|-1-----1-----1---|-2-----2-----2---|-----------1--o||
|---0-0---0-0---0-|---0-0---0-0---0-|---0-0---0-0---0-|-3--0--3-2-----||


 Guitar Solo
  Gtr I
   E E  E E  E E  E E    E E  E E  E E  E E
|---------------------|---------------------|
|-13p0-12p0-10p0-12p0-|-13p0-12p0-13p0-15p0-|
|---------------------|---------------------|
|---------------------|---------------------|
|---------------------|---------------------|
|---------------------|---------------------|
|
| Gtr II
|  PM----------------------------------------
|  E E  E E  E E  E E    E E  E E  E E  E E
|---------------------|---------------------|
|---------------------|---------------------|
|---------------------|---------------------|
|---------------------|---------------------|
|---------------------|--2-2--2-2-----------|
|--1-1--1-1--1-1--3-3-|------------3-3--2-2-|


   ~~~~~~~~~~~~~~~~~~~~~~~
   W                  +H.            +Q
|------------------|------------------------|
|-17---------------|-(17)-----------(17)\---|
|------------------|------------------------|
|------------------|------------------------|
|------------------|------------------------|
|------------------|------------------------|
|
|-----------------------------------------|
|  E E E E E E E E     E  E E E E E   E   E
|------------------|------------------------|
|------------------|------------------------|
|------------------|------------------------|
|------------------|------------------------|
|------------------|------------------------|
|--0-0-0-0-0-0-3-3-|---0--0-0-0-0-0---3---3-|


   Q    Q    Q    Q      Q    Q    Q    Q
|---------------------|---------------------|
|---------------------|---------------------|
|---------------------|---------------------|
|---------------------|------14--------14---|
|-----------14--------|-14--------14--------|
|-13---15--------15---|---------------------|
|
|  PM----------------------------------------
|  E E  E E  E E  E E    E E  E E  E E  E E
|---------------------|---------------------|
|---------------------|---------------------|
|---------------------|---------------------|
|---------------------|---------------------|
|---------------------|--2-2--2-2-----------|
|--1-1--1-1--1-1--3-3-|------------3-3--2-2-|


                         ~~
   Q    Q    Q    Q      W
|---------------------|------------------|
|---------------------|-17---------------|
|------16--------16---|------------------|
|-17--------17--------|------------------|
|---------------------|------------------|
|---------------------|------------------|
|
|--------------------------------------|
|  E E  E E  E E  E E    E E E E E E E E
|---------------------|------------------|
|---------------------|------------------|
|---------------------|------------------|
|---------------------|------------------|
|---------------------|------------------|
|--0-0--0-0--0-0--3-3-|--0-0-0-0-0-0-3-3-|


   ~~~~~~~~~~~~~~~~~~~~~~~~~~~~~~~~~~~~~~~~~~~~~~~~~~~~~~~~~~~~~~~~~~~~~~
   W                                  +W
|-22-------------------------------|-(22)-------------------------------|
|----------------------------------|------------------------------------|
|----------------------------------|------------------------------------|
|----------------------------------|------------------------------------|
|----------------------------------|------------------------------------|
|----------------------------------|------------------------------------|
|
|  PM--------------------------------------------------------------------
|  S S S S S S S S S S S S S S S S     S  S S S S S S S S S S S S S S S
|----------------------------------|------------------------------------|
|----------------------------------|------------------------------------|
|----------------------------------|------------------------------------|
|----------------------------------|------------------------------------|
|----------------------------------|---2--2-2-2-2-2-2-2-----------------|
|--1-1-1-1-1-1-1-1-1-1-1-1-3-3-3-3-|--------------------3-3-3-3-2-2-2-2-|


 ~~~~~~~~~~~~~~~~~~~~~~~~~~~~~~~~~~~~~~~~~~~
   +W                                   +W
|-(22)-------------------------------|-(22)----------------------------------|
|------------------------------------|---------------------------------------|
|------------------------------------|---------------------------------------|
|------------------------------------|---------------------------------------|
|------------------------------------|---------------------------------------|
|------------------------------------|---------------------------------------|
|
|-----------------------------------------------------------------------|
|   S  S S S S S S S S S S S S S S S     S  S S S S S S S S S S S S S S S
|------------------------------------|---------------------------------------|
|------------------------------------|---------------------------------------|
|------------------------------------|---------------------------------------|
|------------------------------------|---------------------------------------|
|------------------------------------|---------------------------------------|
|---0--0-0-0-0-0-0-0-0-0-0-0-3-3-3-3-|---0--0-0-0-0-0-0-0-0-0-0-0-3-3-3-3----|


  Gtrs I, II
  PM-----------------------------------------------------------------
  S S S S S S S S S S S S S S S S   S S S S S S S S S S S S S S S S
|---------------------------------|---------------------------------|
|---------------------------------|---------------------------------|
|---------------------------------|---------------------------------|
|---------------------------------|---------------------------------|
|---------------------------------|-2-2-2-2-2-2-2-2-----------------|
|-1-1-1-1-1-1-1-1-1-1-1-1-3-3-3-3-|-----------------3-3-3-3-2-2-2-2-|


                                                 D.S.S. al Dbl. Coda
 -----------------------------------------------------------------|
  S S S S S S S S S S S S S S S S   S S S S S S S S S S S S S S S S
|---------------------------------|-------------------------------------|
|---------------------------------|-------------------------------------|
|---------------------------------|-------------------------------------|
|---------------------------------|-------------------------------------|
|---------------------------------|-------------------------------------|
|-0-0-0-0-0-0-0-0-0-0-0-0-3-3-3-3-|-0-0-0-0-0-0-0-0-0-0-0-0-3-3-3-3-----|


  &&
  Gtrs I, II
    PM|   PM|   PM    PM|   PM|   PM    PM|   PM|   PM--------|     ~
  E E E E E E E E   E E E E E E E E   E E E E E E E E   E E E E E E Q
|-----------------|-----------------|-----------------|----------------|
|-----------------|-----------------|-----------------|----------------|
|-----------------|-----------------|-----------------|----------------|
|-----------------|-----------------|-----------------|----------------|
|-2-----2-----2---|-1-----1-----1---|-2-----2-----2---|-------2-2S1-5--|
|---0-0---0-0---0-|---0-0---0-0---0-|---0-0---0-0---0-|-0-2-3----------|


                                                                           E5
    PM|   PM|   PM    PM|   PM|   PM    PM|   PM|   PM--------|    PM----|
  E E E E E E E E   E E E E E E E E   E E E E E E E E   S S S S Q  S S S S Q
|-----------------|-----------------|-----------------|-----------------------*|
|-----------------|-----------------|-----------------|-----------------------*|
|-----------------|-----------------|-----------------|-----------------------*|
|-----------------|-----------------|-----------------|-----------------------*|
|-2-----2-----2---|-1-----1-----1---|-2-----2-----2---|---------1----------2--*|
|---0-0---0-0---0-|---0-0---0-0---0-|---0-0---0-0---0-|-3-2-0-0----3-2-0-0-0--*|



Duration Legend
---------------
W - whole; H - half; Q - quarter; E - 8th; S - 16th; T - 32nd; X - 64th; a - acciaccatura
+ - note tied to previous; . - note dotted; .. - note double dotted
Uncapitalized letters represent notes that are staccato (1/2 duration)
Irregular groupings are notated above the duration line
Duration letters will always appear directly above the note/fret number it represents the
duration for.  Duration letters with no fret number below them represent rests.  Multi-
bar rests are notated in the form Wxn, where n is the number of bars to rest for.  Low
melody durations appear below the staff

Tablature Legend
----------------
 h   - hammer-on
 p   - pull-off
 b   - bend
 pb  - pre-bend
 r   - bend release (if no number after the r, then release immediately)
 /\  - slide into or out of (from/to "nowhere")
 s   - legato slide
 S   - shift slide
 - natural harmonic
[n]  - artificial harmonic
n(n) - tapped harmonic
 ~   - vibrato
 tr  - trill
 T   - tap
 TP  - trem. picking
 PM  - palm muting
\n/  - tremolo bar dip; n = amount to dip
 \n  - tremolo bar down
 n/  - tremolo bar up
/n\  - tremolo bar inverted dip
 =   - hold bend; also acts as connecting device for hammers/pulls
 <> - volume swell (louder/softer)
 x   - on rhythm slash represents muted slash
 o   - on rhythm slash represents single note slash

Misc Legend
-----------
 |  - bar
||  - double bar
||o - repeat start
o|| - repeat end
*|  - double bar (ending)
 :  - bar (freetime)
 $  - Segno
 &  - Coda
Tempo markers -  = BPM(8/16=s8/s16), where s8 = swing 8ths, s16 = swing 16ths

Tap to rate this tab
# A B C D E F G H I J K L M N O P Q R S T U V W X Y Z