Song name
# A B C D E F G H I J K L M N O P Q R S T U V W X Y Z

Avenged Sevenfold - Doing Time tab

(/) Slide Up  (\) Slide Down  (h) Hammer On  (p) Pull Off  (b) Bend (r) Release (v) Vibrato

This is tabs of the epic "Doing time" solo by Avenged Sevenfold.

SONG: DOING TIME
ARTIST: AVENGED SEVENFOLD
ALBUM: HAIL TO THE KING, 2013
TUNING: DROP D ( D A D G B E )


Solo start (Full bend)
E|-------7-----|
B|-------10----|
G|-------------|x7
D|-------------|
A|-------------|

E|-------10----|
B|-------13----|
G|-------------|x7
D|-------------|
A|-------------|
E|-------------|


AND THE RAGE BEGINS!

E|-------12-------|
B|-------15-------|
G|----------------|x8
D|----------------|
A|----------------|
E|----------------|

E|-------15----|
B|-------18----|
G|-------------|x3
D|-------------|
A|-------------|
E|-------------|

E|-------18----|
B|-------21----|
G|-------------|x6
D|-------------|
A|-------------|
E|-------------|

NOW COMES THE FAST PART!

E|---------------------------------------------------|
B|---15-11-12-15-12-11-15-11-12-15-12-11-15-11-12-15-|
G|---------------------------------------------------|
D|---------------------------------------------------|
A|---------------------------------------------------|
E|---------------------------------------------------|

E|---------------------------------------------------|
B|---12-11-15-11-12-15-12-11-15-11-12-15-12-11-12----|
G|------------------------------------------------14-|
D|---------------------------------------------------|
A|---------------------------------------------------|
E|---------------------------------------------------|

                                 (p)
E|---17-12-15-17-15----12-------15-12-------12-------12------------------|
B|------------------15----12-15-------12-15----12-15---------------------|
G|-----------------------------------------------------------------------|
D|-----------------------------------------------------------------------|
A|-----------------------------------------------------------------------|
E|-----------------------------------------------------------------------|

E|---17-15-12-12---------------------------------------------|
B|---------------15-12----12-15------------------------------|
G|---------------------15-------15-12------------------------|
D|------------------------------------14-12------------------|
A|-----------------------------------------------------------|
E|-----------------------------------------------------------|


The insane fast part is over but still some tricky stuff left!

E|--------------------------------------------------------------------------------------15--|
B|---12-----------------------14-------------------12-----------14-----------15---------15--|
G|---12-----------------------14-----14-12-14------12-----------14-----------15-------------|
D|----------14-12-14--------------------------------------14-12--------14-12-------14-12----|
A|------------------------------------------------------------------------------------------|
E|------------------------------------------------------------------------------------------|

More badass full bending

E|--------12----------14----------15-----------------|
B|--------15----------17----------18-----------------|
G|---------------------------------------------------|
D|---------------------------------------------------|
A|---------------------------------------------------|
E|---------------------------------------------------|

AND THE SOLO IS DONE!


I hope you liked it. Feel free to comment, for me to correct, if something is wrong :)

CHEERS!


Credits: Written and made by Christian Svanberg
Tap to rate this tab
# A B C D E F G H I J K L M N O P Q R S T U V W X Y Z