Song name
# A B C D E F G H I J K L M N O P Q R S T U V W X Y Z

Babes In Toyland - Memory tab

Artist: Babes In Toyland
Song: Memory
Album: Nemesisters
Tabbed by: Martina
 
I'm a big fan of Babes and i like this song a lot, 
so i decided to tab it. Enjoy!

INTRO (x2)
e|-----------------------------------------------|
B|-----------------------------------------------|
G|-----------------------------------------------|
D|--2---2-3--2---2-3--2---2-3-2-3-2-0--2---2-3---|
A|--2-3------2-3------2-3--------------2-3-------|
E|-----------------------------------------------|

e|-----------------------------------------------|
B|-----------------------------------------------|
G|-----------------b3----------------------------|
D|--2---2-3--2---2-b3----------------------------|
A|--2-3------2-3---------------------------------|
E|-----------------------------------------------|

VERSE 
Memory hide and seek halloween men or me
e|-----------------------------------------------|
B|-----------------------------------------------|
G|------------------------------8888-------------|
D|------2-3------2-3------2-3~--8888------2-3----|
A|--2-3------2-3------2-3-------------2-3--------|
E|-----------------------------------------------|

e|-----------------------------------------------|
B|-----------------------------------------------|
G|---------------------8888----------------------|
D|------2-3------2-3~--8888------2-3------2-3----|
A|--2-3------2-3-------------2-3------2-3--------|
E|-----------------------------------------------|

e|-----------------------------------------------|
B|-----------------------------------------------|
G|------------8888--------------------------b3---|
D|------2-3~--8888------2-3------2-3------2-b3---|
A|--2-3-------------2-3------2-3------2-3--------|
E|-----------------------------------------------|

CHORUS (x4)
You decide what’s on the mind coming in from
The other side, look what you done to me
Following following, look what you done to me
Shadowing shallowing, yeah 
The other side 
e|-----------------------------------------------|
B|-----------------------------------------------|
G|--------------------------b3-------------------|
D|--2---2-3--2---2-3--2---2-b3-------------------|
A|--2-3------2-3------2-3------------------------|
E|-----------------------------------------------|

BRIDGE
I knew you first
I loved you first
I am the first
e|-----------------------------------------------|
B|-----------------------------------------------|
G|---------------------------------------2-------|
D|--00-00-0-2-3~--00-00-0-2-3--00-00-0-2---------|
A|--00-00-0-------00-00-0---3--00-00-0-----------|
E|-----------------------------------------------|

e|-----------------------------------------------|
B|-----------------------------------------------|
G|--121212121212-111111-101010-------------------|
D|--121212121212-101010-9-9-9--------------------|
A|-----------------------------------------------|
E|-----------------------------------------------|

INTRO  (x2)
Pokin naked ruthie with a sharp-end stick shit
I am mean
 
VERSE  (x4)
Memory hide and seek halloween you know me 

CHORUS (x4)
You decide what’s on the mind coming in from
The other side look what you done to me
Following following look what you done to me
Shadowing shallowing
The other side

BRIDGE
I knew you first
I loved you first
I am your curse

INTRO  (x2)
Yeah ... 

SOLO
(just hammer-on)
e|-----------------------------------------------|
B|-----------------------------------------------|
G|--b10-b10-b10-10101010101010-b13-b13-b13-131313|
D|--------------10101010101010-------------131313|
A|-----------------------------------------------|
E|-----------------------------------------------|

e|-----------------------------------------------|
B|-----------------------------------------------|
G|1313131313-b15-b15-b15-b17-b17-b17--13---------|
D|1313131313-----------------------------15-16---|
A|-----------------------------------------------|
E|-----------------------------------------------|

e|-----------------------------------------------|
B|-----------------------------------------------|
G|--------6-8-6-------6-8-6-------6-8-6----------|
D|--/b13--------7-8-5-------7-8-5-------b7-~8----|
A|-----------------------------------------------|
E|-----------------------------------------------|

e|-----------------------------------------------|
B|-----------------------------------------------|
G|------------------------------------------/7-7-|
D|--b8-b8-b8-b8-8-8-8-7-7-7-5-5-5-4-4-4-2-2-/7-7-|
A|-----------------------------------------------|
E|-----------------------------------------------|

CHORUS (x4)
You decide what’s on the mind coming in from
The other side, look what you done to me
Following following look what you done to me
Shadowing shallowing
The other side

OUTRO
e|-----------------------------------------------|
B|-----------------------------------------------|
G|-----------------------------------------------|
D|--00-00-0-2-3----------------------------------|
A|--00-00-0---3----------------------------------|
E|-----------------------------------------------|
Tap to rate this tab
# A B C D E F G H I J K L M N O P Q R S T U V W X Y Z