Song name
# A B C D E F G H I J K L M N O P Q R S T U V W X Y Z

Back To School - Ordinary World tab

-----------------------------------------------------------------------------------
			     Ordinary World - Back to School
-----------------------------------------------------------------------------------

Tabbed by:	Back to School
Email:		BacktoSchoolTV@gmx.de

Tuning:		Standard


Intro:

Gitarre 1:
e|-------------------------------------|
H|-------------------------------------|
G|--x-9-x-9-x-9-x-9-x------------------|
D|--x-9-x-9-x-9-x-9-x-10-x-10-x-9-x-9--|		(2x)
A|--x-7-x-7-x-7-x-7-x-10-x-10-x-9-x-9--|
E|--------------------8--x-8--x-7-x-7--|

    v ^ v ^ v ^ v ^ v ^  v ^  v ^ v ^ 


Gitarre 2:
e|--x-x---x-x-x-x-x-x-------------------|
H|--8-8---8-8-8-8-8-8-------------------|
G|--9-9---9-9-9-9-9-9-9--9---9--8-8-88--|
D|--9-9---9-9-9-9-9-9-10-10--10-9-9-99--|
A|--7-7---7-7-7-7-7-7-10-10--10-9-9-99--|
E|--x-x---x-x-x-x-x-x-8--8---8--7-7-77--|

    v ^   v ^ v ^ v ^ v  ^   v  v v v^


Strophe:

Gitarre 1/2:
e|-------------------------------------|
H|-------------------------------------|
G|--x-9-x-9-x-9-x-9-x------------------|
D|--x-9-x-9-x-9-x-9-x-10-x-10-x-9-x-9--|		(2x)
A|--x-7-x-7-x-7-x-7-x-10-x-10-x-9-x-9--|
E|--------------------8--x-8--x-7-x-7--|

    v ^ v ^ v ^ v ^ v ^  v ^  v ^ v ^ 


Refrain:

Gitarre 1/2:
e|------------------------|
H|------------------------|
G|-------5-55------7777---|
D|--2-22-5-55-5-55-7777---|				(4x)
A|--2-22-3-33-5-55-5555---|
E|--0-00------3-33--------|

    v v^ v v^ v v^ v^v^  


Bridge:

Gitarre 1
e|--x-x---x-x-x-x-x-x-------------------|
H|--8-8---8-8-8-8-8-8-------------------|
G|--9-9---9-9-9-9-9-9-9--9---9--8-8-88--|
D|--9-9---9-9-9-9-9-9-10-10--10-9-9-99--|
A|--7-7---7-7-7-7-7-7-10-10--10-9-9-99--|
E|--x-x---x-x-x-x-x-x-8--8---8--7-7-77--|

    v ^   v ^ v ^ v ^ v  ^   v  v v v^


Ende:

Gitarre 1/2:
e|-------------------|
H|-------------------|
G|-------------------|
D|--2-2-2-2-2-2-2-2--|
A|--2-2-2-2-2-2-2-2--|
E|--0-0-0-0-0-0-0-0--|


Ablauf:		
Intro
Strophe
Intro
Refrain
Intro
Refrain 2x
Bridge
Refrain
Ende


************************************
| v   brush down
| ^   brush up
| /   slide up
| \   slide down
| h   hammer-on
| p   pull-off
| ~   vibrato
| +   harmonic
| x   Mute note
| b   Bend
| pb  Pre-bend
| br  Bend release
| pbr Pre-bend release
| brb Bend release bend

************************************
Tap to rate this tab
 
# A B C D E F G H I J K L M N O P Q R S T U V W X Y Z