Guitaretab - guitar tabs
Song name
# A B C D E F G H I J K L M N O P Q R S T U V W X Y Z
Home / B / Bayside / Megan tab

Bayside - Megan tab

-------------------------------------------------------------------------------
			       Megan - Bayside
-------------------------------------------------------------------------------
Tabbed by: Garrett Smith
Email: NNoodleNose@gmail.com

Tuning: E standard

[intro]

Guitar One

e|--------------------------------------------|
b|--------------------------------------------|
g|--------------------7-7-X-7-7-X-7-7-X-7-7-7-|
d|-7---6---4---2------7-7-X-7-7-X-7-7-X-7-7-7-|
a|-7---7---4---2--2-0-5-5-X-5-5-X-5-5-X-5-5-5-|
E|-5---4---2---0------5-5-X-5-5-X-5-5-X-5-5-5-|

Guitar Two

e|----------------|     |---------------------|
b|-------10-------|     |---10-10-X-10--------|
g|---9------9---9-|     |----9--9-X--9--------|
d|-7---7------7---|     |----7--7-X--7--9b-7v-|
a|----------------|     |-0-------X-----------|
E|----------------|[x5] |---------------------|

Guitar One

e|-----------------------------------------------------------------------------|
b|-----------------------------------------------------------------------------|
g|-----------------------------------------------------7-7-X-7-7-X-7-7-X-7-7-7-|
d|-7-7-X-7-7-7--6-6-X-6-6-6--4-4-X-4-4-4--2-2-X-2-2-2--7-7-X-7-7-X-7-7-X-7-7-7-|
a|-7-7-X-7-7-7--7-7-X-7-7-7--4-4-X-4-4-4--2-2-X-2-2-2--5-5-X-5-5-X-5-5-X-5-5-5-|
E|-5-5-X-5-5-5--4-4-X-4-4-4--2-2-X-2-2-2--0-0-X-0-0-0--5-5-X-5-5-X-5-5-X-5-5-5-|

Guitar Two

e|-----------------|    |-------------------------------|
b|---10-X-10-10-10-|    |-10-X-10-10-X-10-10-X-10-10-10-|
g|----9-X--9--9--9-|    |--9-X--9--9-X--9--9-X--9--9--9-|
d|----7-X--7--7--7-|    |--7-X--7--7-X--7--7-X--7--7--7-|
a|-0----X----------|    |--0-X-------X-------X----------|
E|-----------------|[x4]|-------------------------------|

[verse One]

Guitar One

e|-----------------------------------------------------------------|
b|-----------------------------------------------------------------|
g|-------------------------------------------7-X-7-7-X-7-7-X-7-7-7-|
d|---7-X-7-7---6-X-6-6---4-X-4-4---2-X-2-2---7-X-7-7-X-7-7-X-7-7-7-|
a|---7-X-7-7---7-X-7-7---4-X-4-4---2-X-2-2---5-X-5-5-X-5-5-X-5-5-5-|
E|-5-5-X-5-5-4-4-X-4-4-2-2-X-2-2-0-0-X-0-0-5-5-X-5-5-X-5-5-X-5-5-5-|[x2]

Guitar Two

e|---------------------------------------------------------------------------------|
b|---------------------------------------------------------------------------------|
g|-------2-------------2-------------2-------------2-------------2-----2-----2-----|
d|---2-----2---2---2-----2---2---2-----2---2---2-----2---2---0-----0-----0-----0---|
a|-0---0-----0-------0-----0-------0-----0-------0-----0---0---0-----0-----0-----0-|
E|---------------4-------------2-------------0-------------------------------------|[x2]

[Pre-Chorus]

Guitar One

e|--------------------------------------------------------------------|
b|--------------------------------------------------------------------|
g|--------------------------------------------------------------------|
d|-9-9-X-9-9--9\11--11-11-X-11-11--11\12--12-12-X-12-12-12-X-12-12-12-|
a|-9-9-X-9-9--9\11--11-11-X-11-11--11\12--12-12-X-12-12-12-X-12-12-12-|
E|-7-7-X-7-7--7\-9---9--9-X--9--9---9\10--10-10-X-10-10-10-X-10-10-10-|

Guitar Two

e|---------------------------------------------------|
b|----3-3--3-----5-5--5------------6-6-6-6-6-6-6-6-6-|
g|-4--4-4--4--6--6-6--6--7--7-7-7--7-7-7-7-7-7-7-7-7-|
d|-4--4-4--4--6--6-6--6--7--7-7-7--7-7-7-7-7-7-7-7-7-|
a|-2--2-2--2--4--4-4--4--5--5-5-5--5-5-5-5-5-5-5-5-5-|
E|---------------------------------------------------|

[Chorus One]

Guitar One

e|----------------------------------------------|
b|----------------------------------------------|
g|------------------------7-X-7-7-X-7-7-X-7-7-7-|
d|-4-X-4-4-X-4-4-X-4-4-4--7-X-7-7-X-7-7-X-7-7-7-|
a|-4-X-4-4-X-4-4-X-4-4-4--5-X-5-5-X-5-5-X-5-5-5-|
E|-2-X-2-2-X-2-2-X-2-2-2--5-X-5-5-X-5-5-X-5-5-5-|

Guitar Two
    ^Rake                    ^Rake
e|-(2)----------------------(5)---------------------|
b|-(2)----------------------(5)---------------------|
g|-(2)----------------------(7)-X-7-7-X-7-7-X-7-7-7-|
d|-(4)-X-4-4-X-4-4-X-4-4-4--(7)-X-7-7-X-7-7-X-7-7-7-|
a|-(4)-X-4-4-X-4-4-X-4-4-4--(5)-X-5-5-X-5-5-X-5-5-5-|
E|-(2)-X-2-2-X-2-2-X-2-2-2--(5)-X-5-5-X-5-5-X-5-5-5-|

Guitar One

e|----------------------------------------------------|
b|----------------------------------------------------|
g|----------------------------------------------------|
d|-7--7-7--7-7--6--6-6--6-6--5--5-5--5-5--4--4-4--4-4-|
a|-7--7-7--7-7--7--7-7--7-7--5--5-5--5-5--4--4-4--4-4-|
E|-5--5-5--5-5--4--4-4--4-4--3--3-3--3-3--2--2-2--2-2-|

Guitar Two

e|-----------------------------------------------------------------|
b|-----------------------------------------------------------------|
g|-9-9-9-9-9-9-9-9-9-9-9-9-9-9-9-9-9-7-7-7-7-7-7-7-7-6-6-6-6-7p6-6-|
d|-X-X-X-X-X-X-X-X-X-X-X-X-X-X-X-X-X-X-X-X-X-X-X-X-X-X-X-X-X-----X-|
a|-7-7-7-7-7-7-7-7-7-7-7-7-7-7-7-7-7-5-5-5-5-5-5-5-5-4-4-4-4-----4-|
E|-----------------------------------------------------------------|

Guitar One

e|--------------------------------------------------|
b|--------------------------------------------------|
g|-4--4-4-4--4-4-4--4-4-4--7--7-7--7-7--9--9-9--9-9-|
d|-4--4-4-4--4-4-4--4-4-4--7--7-7--7-7--9--9-9--9-9-|
a|-2--2-2-2--2-2-2--2-2-2--5--5-5--5-5--7--7-7--7-7-|
E|-2--2-2-2--2-2-2--2-2-2--5--5-5--5-5--7--7-7--7-7-|

Guitar Two

e|-------------------------------------------|
b|-------------------------------------------|
g|-4-4-4-4-4-4-4-4-4-4-4-4-4--7--6--7--9--9--|
d|-X-X-X-X-X-X-X-X-X-X-X-X-X--X--X--X--X--X--|
a|-2-2-2-2-2-2-2-2-2-2-2-2-2--5--4--5--7--7--|
E|-------------------------------------------|

[verse Two]

Guitar One

e|-----------------------------------------------------------------|
b|-----------------------------------------------------------------|
g|-------------------------------------------7-X-7-7-X-7-7-X-7-7-7-|
d|---7-X-7-7---6-X-6-6---4-X-4-4---2-X-2-2---7-X-7-7-X-7-7-X-7-7-7-|
a|---7-X-7-7---7-X-7-7---4-X-4-4---2-X-2-2---5-X-5-5-X-5-5-X-5-5-5-|
E|-5-5-X-5-5-4-4-X-4-4-2-2-X-2-2-0-0-X-0-0-5-5-X-5-5-X-5-5-X-5-5-5-|[x2]

Guitar Two

e|---------------------------------------------------------------------------------|
b|---------------------------------------------------------------------------------|
g|-------2-------------2-------------2-------------2-------------2-----2-----2-----|
d|---2-----2---2---2-----2---2---2-----2---2---2-----2---2---0-----0-----0-----0---|
a|-0---0-----0-------0-----0-------0-----0-------0-----0---0---0-----0-----0-----0-|
E|---------------4-------------2-------------0-------------------------------------|[x2]

[Pre-Chorus]

Guitar One

e|--------------------------------------------------------------------|
b|--------------------------------------------------------------------|
g|--------------------------------------------------------------------|
d|-9-9-X-9-9--9\11--11-11-X-11-11--11\12--12-12-X-12-12-12-X-12-12-12-|
a|-9-9-X-9-9--9\11--11-11-X-11-11--11\12--12-12-X-12-12-12-X-12-12-12-|
E|-7-7-X-7-7--7\-9---9--9-X--9--9---9\10--10-10-X-10-10-10-X-10-10-10-|

Guitar Two

e|---------------------------------------------------|
b|----3-3--3-----5-5--5------------6-6-6-6-6-6-6-6-6-|
g|-4--4-4--4--6--6-6--6--7--7-7-7--7-7-7-7-7-7-7-7-7-|
d|-4--4-4--4--6--6-6--6--7--7-7-7--7-7-7-7-7-7-7-7-7-|
a|-2--2-2--2--4--4-4--4--5--5-5-5--5-5-5-5-5-5-5-5-5-|
E|---------------------------------------------------|

[Chorus Two]

Guitar One

e|----------------------------------------------|
b|----------------------------------------------|
g|------------------------7-X-7-7-X-7-7-X-7-7-7-|
d|-4-X-4-4-X-4-4-X-4-4-4--7-X-7-7-X-7-7-X-7-7-7-|
a|-4-X-4-4-X-4-4-X-4-4-4--5-X-5-5-X-5-5-X-5-5-5-|
E|-2-X-2-2-X-2-2-X-2-2-2--5-X-5-5-X-5-5-X-5-5-5-|

Guitar Two
    ^Rake                    ^Rake
e|-(2)----------------------(5)---------------------|
b|-(2)----------------------(5)---------------------|
g|-(2)----------------------(7)-X-7-7-X-7-7-X-7-7-7-|
d|-(4)-X-4-4-X-4-4-X-4-4-4--(7)-X-7-7-X-7-7-X-7-7-7-|
a|-(4)-X-4-4-X-4-4-X-4-4-4--(5)-X-5-5-X-5-5-X-5-5-5-|
E|-(2)-X-2-2-X-2-2-X-2-2-2--(5)-X-5-5-X-5-5-X-5-5-5-|

Guitar One

e|----------------------------------------------------|
b|----------------------------------------------------|
g|----------------------------------------------------|
d|-7--7-7--7-7--6--6-6--6-6--5--5-5--5-5--4--4-4--4-4-|
a|-7--7-7--7-7--7--7-7--7-7--5--5-5--5-5--4--4-4--4-4-|
E|-5--5-5--5-5--4--4-4--4-4--3--3-3--3-3--2--2-2--2-2-|

Guitar Two
[ Tab from: http://www.guitaretab.com/b/bayside/142135.html ]
e|-----------------------------------------------------------------|
b|-----------------------------------------------------------------|
g|-9-9-9-9-9-9-9-9-9-9-9-9-9-9-9-9-9-7-7-7-7-7-7-7-7-6-6-6-6-7p6-6-|
d|-X-X-X-X-X-X-X-X-X-X-X-X-X-X-X-X-X-X-X-X-X-X-X-X-X-X-X-X-X-----X-|
a|-7-7-7-7-7-7-7-7-7-7-7-7-7-7-7-7-7-5-5-5-5-5-5-5-5-4-4-4-4-----4-|
E|-----------------------------------------------------------------|

Guitar One

e|--------------------------------------------------|
b|--------------------------------------------------|
g|-4--4-4-4--4-4-4--4-4-4--7--7-7--7-7--9--9-9--9-9-|
d|-4--4-4-4--4-4-4--4-4-4--7--7-7--7-7--9--9-9--9-9-|
a|-2--2-2-2--2-2-2--2-2-2--5--5-5--5-5--7--7-7--7-7-|
E|-2--2-2-2--2-2-2--2-2-2--5--5-5--5-5--7--7-7--7-7-|

Guitar Two

e|-------------------------------------------|
b|-------------------------------------------|
g|-4-4-4-4-4-4-4-4-4-4-4-4-4--7--6--7--9--9--|
d|-X-X-X-X-X-X-X-X-X-X-X-X-X--X--X--X--X--X--|
a|-2-2-2-2-2-2-2-2-2-2-2-2-2--5--4--5--7--7--|
E|-------------------------------------------|

[Solo]

Guitar One

e|----------------------------------------------|
b|----------------------------------------------|
g|------------------------7-X-7-7-X-7-7-X-7-7-7-|
d|-4-X-4-4-X-4-4-X-4-4-4--7-X-7-7-X-7-7-X-7-7-7-|
a|-4-X-4-4-X-4-4-X-4-4-4--5-X-5-5-X-5-5-X-5-5-5-|
E|-2-X-2-2-X-2-2-X-2-2-2--5-X-5-5-X-5-5-X-5-5-5-|

Guitar Two
                             [-----]Rake  
e|---------------------------|-----------------------------------|
b|---------------------------|-----10-9-7------------------------|
g|-9b(11)-6------------------|---9--------9--7\6-7p6-------------|
d|----------9-9b(11)r9p7-----|-7---------------------9p7-9p7---7-|
a|-----------------------9-9-|-------------------------------9---|
E|---------------------------|-----------------------------------|

Guitar One

e|----------------------------------------------------|
b|----------------------------------------------------|
g|----------------------------------------------------|
d|-7--7-7--7-7--6--6-6--6-6--5--5-5--5-5--4--4-4--4-4-|
a|-7--7-7--7-7--7--7-7--7-7--5--5-5--5-5--4--4-4--4-4-|
E|-5--5-5--5-5--4--4-4--4-4--3--3-3--3-3--2--2-2--2-2-|

Guitar Two
  [---]Rake
e|--------------------|-------------------------|-----------------------------|
b|-----12b(14)-10-12v-|-15-14-12\10-10-12-11-11-|-----------------------------|
g|---X----------------|-------------------------|-\11-9-7----7-9-11p9-7-------|
d|-X------------------|-------------------------|---------11------------11-9--|
a|--------------------|-------------------------|-----------------------------|
E|--------------------|-------------------------|-----------------------------|

Guitar One

e|--------------------------------------------------|
b|--------------------------------------------------|
g|-4--4-4-4--4-4-4--4-4-4--7--7-7--7-7--9--9-9--9-9-|
d|-4--4-4-4--4-4-4--4-4-4--7--7-7--7-7--9--9-9--9-9-|
a|-2--2-2-2--2-2-2--2-2-2--5--5-5--5-5--7--7-7--7-7-|
E|-2--2-2-2--2-2-2--2-2-2--5--5-5--5-5--7--7-7--7-7-|

Guitar Two

e|----------------------------|-----------------------------------------|
b|----------------------------|--------X--------------------------------|
g|----------------------------|-9b(11)-X-9b(11)r--6h9p6---6-------------|
d|----7--------------7--9p7---|--------X----------------9---9p7---7h9p7-|
a|-\9---9p7p5--9-7-9--------9-|--------X------------------------9-------|
E|----------------------------|-----------------------------------------|

[Verse Three]

Guitar One

e|--------------------------------------------|
b|--------------------------------------------|
g|--------------------7-7-X-7-7-X-7-7-X-7-7-7-|
d|-7---6---4---2------7-7-X-7-7-X-7-7-X-7-7-7-|
a|-7---7---4---2------5-5-X-5-5-X-5-5-X-5-5-5-|
E|-5---4---2---0------5-5-X-5-5-X-5-5-X-5-5-5-|

Guitar Two

e|-----------------|     |------------------------------|
b|---10-----10-----|     |-10--10-10-X-10-10-X-10-10-10-|
g|------9------9---|     |--9---9--9-X--9--9-X--9--9--9-|
d|-7------7------7-|     |--7---7--7-X--7--7-X--7--7--7-|
a|-----------------|     |------------------------------|
E|-----------------|[x5] |------------------------------|

Guitar One

e|-----------------------------------------------------------------|
b|-----------------------------------------------------------------|
g|-------------------------------------------7-X-7-7-X-7-7-X-7-7-7-|
d|---7-X-7-7---6-X-6-6---4-X-4-4---2-X-2-2---7-X-7-7-X-7-7-X-7-7-7-|
a|---7-X-7-7---7-X-7-7---4-X-4-4---2-X-2-2---5-X-5-5-X-5-5-X-5-5-5-|
E|-5-5-X-5-5-4-4-X-4-4-2-2-X-2-2-0-0-X-0-0-5-5-X-5-5-X-5-5-X-5-5-5-|

Guitar Two

e|---------------------------------------------------------------------------------|
b|---------------------------------------------------------------------------------|
g|-------2-------------2-------------2-------------2-------------2-----2-----2-----|
d|---2-----2---2---2-----2---2---2-----2---2---2-----2---2---0-----0-----0-----0---|
a|-0---0-----0-------0-----0-------0-----0-------0-----0---0---0-----0-----0-----0-|
E|---------------4-------------2-------------0-------------------------------------|

[Pre-Chorus]

Guitar One

e|--------------------------------------------------------------------|
b|--------------------------------------------------------------------|
g|--------------------------------------------------------------------|
d|-9-9-X-9-9--9\11--11-11-X-11-11--11\12--12-12-X-12-12-12-X-12-12-12-|
a|-9-9-X-9-9--9\11--11-11-X-11-11--11\12--12-12-X-12-12-12-X-12-12-12-|
E|-7-7-X-7-7--7\-9---9--9-X--9--9---9\10--10-10-X-10-10-10-X-10-10-10-|

Guitar Two

e|---------------------------------------------------|
b|----3-3--3-----5-5--5------------6-6-6-6-6-6-6-6-6-|
g|-4--4-4--4--6--6-6--6--7--7-7-7--7-7-7-7-7-7-7-7-7-|
d|-4--4-4--4--6--6-6--6--7--7-7-7--7-7-7-7-7-7-7-7-7-|
a|-2--2-2--2--4--4-4--4--5--5-5-5--5-5-5-5-5-5-5-5-5-|
E|---------------------------------------------------|

[Chorus Three]

Guitar One

e|---------------------------------------|
b|---------------------------------------|
g|------------------------7-X-7-7-X-7-7\-|
d|-4-X-4-4-X-4-4-X-4-4-4--7-X-7-7-X-7-7\-|
a|-4-X-4-4-X-4-4-X-4-4-4--5-X-5-5-X-5-5\-|
E|-2-X-2-2-X-2-2-X-2-2-2--5-X-5-5-X-5-5\-|

Guitar Two
    ^Rake                    ^Rake
e|-(2)----------------------(5)-------------|
b|-(2)----------------------(5)-------------|
g|-(2)----------------------(7)-X-7-7-X-7-7-|
d|-(4)-X-4-4-X-4-4-X-4-4-4--(7)-X-7-7-X-7-7-|
a|-(4)-X-4-4-X-4-4-X-4-4-4--(5)-X-5-5-X-5-5-|
E|-(2)-X-2-2-X-2-2-X-2-2-2--(5)-X-5-5-X-5-5-|

Guitar One

e|----------------------------------------------------|
b|----------------------------------------------------|
g|----------------------------------------------------|
d|-7--7-7--7-7--6--6-6--6-6--5--5-5--5-5--4--4-4--4-4-|
a|-7--7-7--7-7--7--7-7--7-7--5--5-5--5-5--4--4-4--4-4-|
E|-5--5-5--5-5--4--4-4--4-4--3--3-3--3-3--2--2-2--2-2-|

Guitar Two

e|-----------------------------------------------------------------|
b|-----------------------------------------------------------------|
g|-9-9-9-9-9-9-9-9-9-9-9-9-9-9-9-9-9-7-7-7-7-7-7-7-7-6-6-6-6-7p6-6-|
d|-X-X-X-X-X-X-X-X-X-X-X-X-X-X-X-X-X-X-X-X-X-X-X-X-X-X-X-X-X-----X-|
a|-7-7-7-7-7-7-7-7-7-7-7-7-7-7-7-7-7-5-5-5-5-5-5-5-5-4-4-4-4-----4-|
E|-----------------------------------------------------------------|

Guitar One

e|--------------------------------------------------|
b|--------------------------------------------------|
g|-4--4-4-4--4-4-4--4-4-4--7------------9-----------|
d|-4--4-4-4--4-4-4--4-4-4--7------------9-----------|
a|-2--2-2-2--2-2-2--2-2-2--5------------7-----------|
E|-2--2-2-2--2-2-2--2-2-2--5------------7-----------|

Guitar Two

e|-------------------------------------------|
b|-------------------------------------------|
g|-4-4-4-4-4-4-4-4-4-4-4-4-4--7--6--7--9--9--|
d|-X-X-X-X-X-X-X-X-X-X-X-X-X--X--X--X--X--X--|
a|-2-2-2-2-2-2-2-2-2-2-2-2-2--5--4--5--7--7--|
E|-------------------------------------------|

[Outro]

Guitar One

e|-----------------------------------------|
b|-----------------------------------------|
g|-----------------------------------------|
d|-7---------6---------4---------7---------|
a|-7---------7---------4---------7---------|
E|-5---------4---------2---------5---------|

Guitar Two
                   [-------]Rake
e|---------------------------|
b|---10-----10-----------10--|
g|------9------9--------9----|
d|--------7------7----7------|
a|-0----------------0--------|
E|---------------------------|[x3]

Yup, that's about the best I could explain it... Any Questions, just comment or E-mail.
Related for Megan tab
Advertisement will be closed in 10 seconds