Song name
# A B C D E F G H I J K L M N O P Q R S T U V W X Y Z

Beatles - All You Need Is Love tab

All You Need Is Love by:
Beatles

Transcribed By:
Andre B.

p = pull
h = hold
b = bend
``` = let it ring

Main Riff
|------------------------------------|
|------------------------------------|
|----------------------------------0-|
|-7--5--4--2-0-0-0-----------0-0-2---|
|------------------3-3-3-2-3---------|
|------------------------------------|

Main Riff 2
|--------------------------------|
|--------------------------------|
|--------------------------------|
|--------------------------------|
|-----------------------------10-|
|-10-10-10-8-8-8-7-8-10-10-12----|

Main Riff 3
|-----------|
|-----------|
|-----------|
|-4-3-2-1-0-|
|-----------|
|-----------|

------------------------------------------------------------------

|-----------------------------------10```--------------|
|------------------------10---10----------12-----------|
|-------------12---12--------------------------12------|
|--12---12---------------------------------------------|
|------------------------------------------------------|
|------------------------------------------------------|


|------------------------------------------------------|
|-------12---------------13```------------10--------10-|
|--12------12----------------------------------12------|
|------------------14----------------------------------|
|------------------------------------------------------|
|------------------------------------------------------|


G      B7     Em
Love   love   love     

G      B7     Em
Love   love   love     

D7     B7     Em
Love   love   love


(Insted of playing the last 3 loves you can play this)
|--------------------------------|
|--------------------------------|
|------------------------------0-|
|-7--5--4--2--0---------0--0-2---|
|----------------3--2-3----------|
|--------------------------------|



G			B7		 Em
There's nothing you can do that can't be done

G		       B7		  Em
Theres nothing you can sing that can't be sung

D7              B7              Em
Nothing you can say but you can learn to play the game
(through this part you can either play the chords or the main riff)
     D
It's easy
(right after this play main riff 2)

There's nothing you can make that can't be made
No one  you can save that can't be saved
Nothing you can do but you can learn how to be you in time
It's easy


CHORUS:

G       A7      D
All you need is love (now play main riff 3)

G       A7      D
All you need is love (again)

G       B7      Em         G
All you need is love       love

C       D       G
Love is all you need


|-5h7b-3h5b-2h4p2-0-5h7b-5-3h5b-3-2h4p2-0-|
|-----------------------------------------|
|-----------------------------------------|
|-----------------------------------------|
|-----------------------------------------|
|-----------------------------------------|

Then you will play this shortly
|-------------------------------------------|
|-------------------------------------------|
|-------------------------------------------|
|-------------------------------------------|
|----------------------------------------10-|
|-1010101010101010-88888888-7-8-10-10-12----|


CHORUS


There's nothing you can know that isn't known
Nothing you can see that isn't shown
Nowhere you can be that isn't where you're meant to be
Its easy

CHORUS

Ending:

G       A7      D    (play main riff 3)
All you need is love, All together now

G       A7      D        (again)
All you need is love, Everybody now

G       B7      Em	   G
All you need is love       love

C       D       G
Love is all you need 

G
Love is all you need, Love is all you need  (repeats a few times)


Questions or comments e-mail me at sakuad@hotmail.com
Tap to rate this tab
# A B C D E F G H I J K L M N O P Q R S T U V W X Y Z