Song name
# A B C D E F G H I J K L M N O P Q R S T U V W X Y Z

Beck - Where Its At tab

Song Title: Where It's At
Album: Odelay 
Contributor: kidb 



TAB Keyboard part:
||---------------------------------------------------||
||----5---5--7-/8~-------------7h8-7--3-3--5-5~------||
||----5---5--7-/9~-------------7h9-7--4-4--6-6~------||
||------5-----------5--2-4-----------------------2-4-||
||-0------------------------0------------------------||
||---------------------------------------------------||

Guitar (after 2 measures):
||----------------------------------------------||
||----------------------------------------------||
||-----------------------------------------0----||
||--------0-2-5~--------0-0-------------0h2-----||
||-0--0-3--------7\5--3-----3-0----0-0-------0--||
||----------------------------------------------||

Chorus:
||-0--0--------------------||
||-0--0--------2--2--0-----||
||-1--1-----1--2--2--0h1---||
||-2--2-----2--2--2------2-||
||-2--2-----2--------------||
||-0--0-----0--------------||
   
LYRICS
A
There's a destination a little up the road
From the habitations and the towns we know
A place we saw the lights turn low
With the jig-saw jazz and the get-fresh flow

Pulling out jives and jamboree handouts
Two turntables and a microphone
Bottles and cans just clap your hands just clap your hands

E
Where it's at!
I got two turntables and a microphone
Where it's at!
I got two turntables and a microphone
Where it's at!
I got two turntables and a microphone
Where it's at!
[robot vocal effect] I got two turntables and a microphone

take me home in my elevator bones!

A
Pick yourself up off the side of the road
With your elevator bones and your whip-flash tones
Members only hyponotizers
move through the womb like ambulance drivers
Shine your shoes with your microphone blues
Here-suits with your parachute fruits
Passing the dutchie from coast to coast
Let the man get loose while I rock the most

E
Where it's at!
I got two turntables and a microphone
Where it's at!
I got two turntables and a microphone

Horn break: G E G E 
Man[spoken]: "What about those who swing both ways: AC-DC's?

A
Two turntables and a microphone
Two turntables and a microphone
Two turntables and a microphone
Two turntables and a microphone
Two turntables and a microphone
Two turntables and a microphone

Where it's at!
I got two turntables and a microphone
Where it's at!
I got two turntables and a microphone

Oh, dear me. Make Out City is a two-horse town
girl[spoken]: "That's beautiful, Dad."

(Get my microphone....)
A
There's a destination a little up the road
From the habitations and the towns we know
A place we saw the lights turn low
With the jig-saw jazz and the get-fresh flow

Pulling out jives and jamboree handouts
Two turntables and a microphone
Bottles and cans just clap your hands just clap your hands

E
Where it's at!
I got two turntables and a microphone
Where it's at!
I got two turntables and a microphone

A
I got plastic on my mind
Telephone plastic baby
Tap to rate this tab
 
# A B C D E F G H I J K L M N O P Q R S T U V W X Y Z