Song name
# A B C D E F G H I J K L M N O P Q R S T U V W X Y Z

Before The Dawn - Angel tab

Hey Guys. Still new to this. Hope everything is as accurate as my ears tell me it is. 

E|------------------------------------|
B|------------------------------------|
G|-------10-10-10--10-----10-10-8--8--|
D|--8-8-8--------8---8-8-8-------11---|
A|------------------------------------|
D|------------------------------------|

E|------------------------------------|
B|------------------------------------|
G|-------8-8-8-8-----8-8-6------------|
D|-6-6-6------6-6-6-6-----9-8---------|
A|------------------------------------|
D|------------------------------------|

              (x2)

The second time you play it, you hold the last note.
Tap to rate this tab
 
# A B C D E F G H I J K L M N O P Q R S T U V W X Y Z