Song name
# A B C D E F G H I J K L M N O P Q R S T U V W X Y Z

Biffy Clyro - Many Of Horror tab

Tuning: Drop D

Intro/Verse:
|----------------------------------|
|----------------------------------|
|--7---9-/-11-11-------------------|
|--9--11-/-12-12-------------------|
|----------------------------------|
|--9--11-/-12-12-------------------|

|----------------------------------|
|----------------------------------|
|--2--4-/-6-6----------------------|
|--4--5-/-7-7----------------------|
|----------------------------------|
|--4--5-/-7-7----------------------|

|--------------------------------|
|--------------------------------|
|--12--11--7---------------------|
|--14--12--9---------------------|
|--------------------------------|
|--14--12--9---------------------|

|--------------------------------|
|--------------------------------|
|--12--11--6---------------------|
|--14--12--7---------------------|
|--------------------------------|
|--14--12--7---------------------|

Pre Chorus 
|--------------------------------|
|--------------------------------|
|--7---9-/-11-4------------------|
|--9--11-/-12-5------------------|
|--------------------------------|
|--9--11-/-12-5------------------|

|--------------------------------|
|--------------------------------|
|--2--2-/-7-4--------------------|
|--4--4-/-0-5--------------------|
|---------0----------------------|
|--4--4-/-0-5--------------------|

|-----------------------|
|-----------------------|
|--6--------------------|
|--7--------------------|
|-----------------------|
|--7--------------------|

Chorus 
|--------------------------------------- ---------------------------|
|--------------------------------------- ---------------------------|
|--12-12---11-11---9-9--7-/-9-11----11-- ---11----11---11---11------|
|---0--0----0--0---0-0--0------0-----0-- ----0-----0----0----0------|
|--------------------------------------- ---------------------------|
|--------------------------------------- ---------------------------|

|--------------------------------------- ---------------------------|
|--------------------------------------- ---------------------------|
|--12-12---11-11---9-9---7-7---4-4-----4 -------4----4----4---------|
|---9--9----9--9---9-9---9-9---5-5-----5 -------5----5----5---------|
|--------------------------------------- ---------------------------|
|--------------------------------------- ---------------------------|

|--------------------------------------- ---------------------------|
|--------------------------------------- ---------------------------|
|--12-12---11-11---9-9--9-/-11-14----14- ----14----14---14----------|
|---0--0----0--0---0-0--0----0--0-----0- -----0-----0----0----------|
|--------------------------------------- ---------------------------|
|--------------------------------------- ---------------------------|

|---------------------------------------|
|---------------------------------------|
|--12-11-11-9-9-7-11-12-----------------|
|---9--9--9-9-9-9--9-12-----------------|
|--------------------10-----------------|
|---------------------------------------|

Repeat Verse

Pre Chorus
|---------------------------------------|
|---------------------------------------|
|--7---9-/-11-4-------------------------|
|--9--11-/-12-5-------------------------|
|---------------------------------------|
|--9--11-/-12-5-------------------------|

|---------------------------------------|
|---------------------------------------|
|--2--2-/-7-4---------------------------|
|--4--4-/-0-5---------------------------|
|---------0-----------------------------|
|--4--4-/-0-5---------------------------|

|-----------------------|
|-----------------------|
|--6--------------------|
|--7--------------------|
|--7--------------------|
|--7--------------------|

Chorus
|-------5-------------|
|--3----3-------------|
|--2----2----7----4---|
|--0----0----9----5---|
|--0----0----9----5---|
|--0----0----9----5---|

Bridge:
|---------------------------|
|---------------------------|
|--6--------7----4----6-----|
|--7--------9----5----7-----|
|--7--------9----5----7-----|
|--7--------9----5----7-----| 
Tap to rate this tab
# A B C D E F G H I J K L M N O P Q R S T U V W X Y Z