Biffy Clyro - God And Satan tab

          CHORDS

   G   C   Em  D  D/F#  Am
e|-3---0---0---2---3---0-|
B|-0---1---0---3---3---1-|
G|-0---0---0---2---2---2-|       Strumming pattern - D D U U DU
D|-0---2---2---0---0---2-|
A|-2---3---2---x---0---x-|
E|-3---x---0---x---2---x-|


INTRO

        G          Em                          C
e|----(3)-(3)--(3)------0-0-------(3)-(3)---------0-0------0-0---0-----(3)-(3)|
B|-----0---0----0-------0-0--------0---0----------1-1------1-1---1------0---0-|
G|-----0---0----0-------0-0--0-----0---0----------0-0------0-0---0------0---0-|
D|-----0---0----0--2-2-------0-----0---0------2-2------2-2-------2------0---0-|
A|-----------------2-2-------0----------------3-3------3-3-----3--------------|
E|-3-3-------2-----0-0-----2-3-3-3-------2-3-----------------------3-3--------|

e|-------------------------------------|
B|-------------------------------------|
G|----2---2/4-4--4\2--2/4--2/4 4\2-2p--|
D|----0--------------------------------|
A|----0--------------------------------|
E|-2-----------------------------------|


VERSES

        G          Em                          C
E|----(3)-(3)--(3)------0-0-------(3)-(3)---------0-0------0-0---0-----(3)-(3)|
B|-----0---0----0-------0-0--------0---0----------1-1------1-1---1------0---0-|
G|-----0---0----0-------0-0--0-----0---0----------0-0------0-0---0------0---0-|
D|-----0---0----0--2-2-------0-----0---0------2-2------2-2-------2------0---0-|
A|-----------------2-2-------0----------------3-3------3-3-----3--------------|
E|-3-3-------2-----0-0-----2-3-3-3-------2-3-----------------------3-3--------|

     D/F# Em
E|-----------------------------------|
B|------------0-0-----0--------0-0---|
G|----2-------0-0-----0--------0-0---|
D|----0--2-2--2-2--2--2---2-2--2-2---|
A|----0--2-2-------2------2-2--------|
E|-2-----0-0-------0------0-0--------|


PRECHORUS

      C    G   D
E |--0-0--3-3--0------0-----2----3---|
B |--1-1--0-0--3--3-----3-----3----3-|
G |--0-0--0-0--2----2-----2-----2---2|
D |--2-2--0-0--0---------------------|
A |--3-3--2-2------------------------|
E |-------3-3------------------------|


Chorus (keep using the d d u u du strumming pattern)

          C                  Em           G
E|-0-0-3-0-0-0-0-0-3-3-0-0-0-0-0-0-0-0-3-3-3-3-3-3-|
B|-1-1-1-1-1-1-1-1-1-1-1-1-0-0-0-0-0-0-0-0-0-0-0-0-|
G|-0-0-0-0-0-0-0-0-0-0-0-0-0-0-0-0-0-0-0-0-0-0-0-0-|
D|-2-2-2-2-2-2-2-2-2-2-2-2-2-2-2-2-2-2-0-0-0-0-0-0-|
A|-3-3-3-3-3-3-3-3-3-3-3-3-2-2-2-2-2-2-2-2-2-2-2-2-|
E|-------------------------0-0-0-0-0-0-3-3-3-3-3-3-|

          C                  Em           D
E|-0-0-3-0-0-0-0-0-3-3-0-0-0-0-0-0-0-0-2-2-2-2-2-|
B|-1-1-1-1-1-1-1-1-1-1-1-1-0-0-0-0-0-0-3-3-3-3-3-|
G|-0-0-0-0-0-0-0-0-0-0-0-0-0-0-0-0-0-0-2-2-2-2-2-|
D|-2-2-2-2-2-2-2-2-2-2-2-2-2-2-2-2-2-2-----------|
A|-3-3-3-3-3-3-3-3-3-3-3-3-2-2-2-2-2-2-----------|
E|-------------------------0-0-0-0-0-0-----------|

E |-2-3h|
B |-3---| (on the final strum)
G |-2---|
D |-0---|
A |-----|
E |-----|

   uhh uhh uhh               uhh uhh uhh
        G          Em
e|----(3)-(3)--(3)------0-0-------(3)-(3)-(3)------0-0--------|
B|-----0---0----0-------0-0--------0---0---0-------0-0--------|
G|-----0---0----0-------0-0--0-----0---0---0-------0-0---0----|
D|-----0---0----0--2-2-------0-----0---0---0---2-2-------0----|
A|-----------------2-2-------0-----------------2-2-------0----|
E|-3-3-------2-----0-0-----2-3-3-3-------2-----0-0-----2-3-3-3|

(VERSE)

PRECHORUS 2
      C    G   D
E |--0-0--3-3--0------2-----3----2---|
B |--1-1--0-0--3--3-----3-----3----3-|
G |--0-0--0-0--2----2-----2-----2---2|
D |--2-2--0-0--0---------------------|
A |--3-3--2-2------------------------|
E |-------3-3------------------------|

CHORUS 2
          C                  Em           G
E|-0-0-3-0-0-0-0-0-3-3-0-0-0-0-0-0-0-0-3-3-3-3-3-3-|
B|-1-1-1-1-1-1-1-1-1-1-1-1-0-0-0-0-0-0-0-0-0-0-0-0-|
G|-0-0-0-0-0-0-0-0-0-0-0-0-0-0-0-0-0-0-0-0-0-0-0-0-|
D|-2-2-2-2-2-2-2-2-2-2-2-2-2-2-2-2-2-2-0-0-0-0-0-0-|
A|-3-3-3-3-3-3-3-3-3-3-3-3-2-2-2-2-2-2-2-2-2-2-2-2-|
E|-------------------------0-0-0-0-0-0-3-3-3-3-3-3-|

          C                  Em           D             x2
E|-0-0-3-0-0-0-0-0-3-3-0-0-0-0-0-0-0-0-2-2-2-2-2-|
B|-1-1-1-1-1-1-1-1-1-1-1-1-0-0-0-0-0-0-3-3-3-3-3-|
G|-0-0-0-0-0-0-0-0-0-0-0-0-0-0-0-0-0-0-2-2-2-2-2-|
D|-2-2-2-2-2-2-2-2-2-2-2-2-2-2-2-2-2-2-----------|
A|-3-3-3-3-3-3-3-3-3-3-3-3-2-2-2-2-2-2-----------|
E|-------------------------0-0-0-0-0-0-----------|


BRIDGE - I slap the water and watch...(Strumming pattern D DU DU)

         Em         G         Am        C     D
 E |-----------------3-3---0-0-0-0-0-0-0-0---2-2-2|
 B |---------------------0-1-1-1-1-1-1-1-1-0-3-3-3|
 G |---------------------0-2-2-2-2-2-2-2-2-0-2-2-2| x4
 D |-2-2-2-2-2---0-------0-2-2-2-2-2-2-0-0-0-0-0-0|
 A |-2-2-2-2-2---0---2-2---------------3-3--------|
 E |-0-0-0-0-0-2---3-3-3--------------------------|

OUTRO

 uhh uhh uhh               uhh uhh uhh
        G          Em                         C
e|----(3)-(3)--(3)------0-0-------(3)-(3)-(3)-0|
B|-----0---0----0-------0-0--------0---0---0--1|
G|-----0---0----0-------0-0--0-----0---0---0--0|
D|-----0---0----0--2-2-------0-----0---0---0--2|
A|-----------------2-2-------0----------------3|
E|-----3-----2-----0-0-----2-3-3-3-------2-----|
Tap to rate this tab
 
# A B C D E F G H I J K L M N O P Q R S T U V W X Y Z