Song name
# A B C D E F G H I J K L M N O P Q R S T U V W X Y Z

Biffy Clyro - Stingin Belle tab

Tabber: monthebiffy97
Email: mon.the.biff.cait@aol.com

Been obsessed with this song recently and didn't see a tab for it :( 
Listened to it so much that I had to play it!!! 
I think this is mostly right but if it's wrong comment me...
Oh and it's in DROP C else it sounds terrible!!
              Enjoy and MON THE BIFF :)

             Intro
D|---------------------------------------------------------|
A|---------------------------------------------------------|
F|---------------------------------------------------------|
C|---------------------------------------------------------|
G|-333333--00-----333333333333--0000-----333333----000000--|
C|-333333--00-----333333333333--0000-----333333(x3)000000--|

D|----------------------------------------|
A|----------------------------------------|
F|----------------------------------------|
C|----------------------------------------|
G|-333333------00000000-----333333--------|
C|-333333(x4)--00000000-----333333(x8)----|

D|------------------------------|
A|------------------------------|
F|------------------------------|  =  Main Riff
C|----4----0h2h3------0---------| 
G|----------------0h2-----------|
C|-00----0------------------(x3)|
                              
                             VERSE (Work out timings)
                       
                        You say love, I say killin time
                       Whats mine is yours, yours is mine
                        You make me laugh, I make you cry
                               I guess that rhymes

D|--------------------------------------------------------------------------|
A|----3---3-----------3---3-------------3----3----------3---3---------------|
F|--------------------------------------------------------------------------|
C|--0---0---0h2h4---0---0---0h2h4-----0----0---0h2h4---0---0----------------|
G|---------------------------------------0----------------------------------|
C|-0---0-----------2---2------------5-----------------0---0-----------------|

                    You're contained by floors and walls
                       I'm contained by your control
                      You're overthrown but under-worn
                                I told you so

D|--------------------------------------------------------------------------|
A|--------------------------------------------------------------------------|
F|--------------------------------------------------------------------------|
C|----4---0h2h4-----0-----4---0h2h2-----0----4---0h2h4-----0----4---0h2h4---|
G|--------------0h2-----------------0h2----------------0h2------------------|
C|-00---0--------------00---0-------------22---2-------------22----2--------|

D|--------------------------------------------------------------------------|
A|--------------------------------------------------------------------------|
F|--------------------------------------------------------------------------|
C|------0-----4---0h2h4-----0------4---0h2h4-----0----4---0h2h4-----0-------|
G|--0h2-----------------0h2-----00---0-------0h2----------------0h2---------|
C|---------55---5----------------------------------00---0-------------------|

D|---------------------|
A|---------------------|
F|---------------------|
C|----4---0h2h4-----0--|
G|--------------0h2----|
C|-00---0--------------|
                                  CHORUS 
                   We're singing for the stinging belle
                           Surely lost her way
                      Claiming all the simple times
                         Inside her tragic day

D|-------222-------222------------------------------------------------------|
A|--888--333--888--333--888-------101010------------------------------------|
F|--777--222--777--222--777-------9-9-9-------------------------------------|
C|--555--000--555--000--555--999--7-7-7---000000000000----------------------|
G|--555--000--555--000--555--999--7-7-7---000000000000----------------------|
C|--555--000--555--000--555--999--7-7-7---000000000000----------------------|

                                2ND VERSE
                    Grow some balls and speak your mind
                   You think you're cool like a porcupine
                You're more like doves, they're taking flight
                              The sky is mine

D|--------------------|
A|--------------------|
F|--------------------|   
C|--0h2h4-----0-------| x3 (work out timings, not that hard)
G|--------0h2---------|
C|--------------------|

                                 CHORUS 
                   We're singing for the stinging belle
                           Surely lost her way
                      Claiming all the simple times
                         Inside her tragic day

D|-------222-------222------------------------------------------------------|
A|--888--333--888--333--888-------101010------------------------------------|
F|--777--222--777--222--777-------9-9-9---------------111111111111----------|
C|--555--000--555--000--555--999--7-7-7---------------000000000000----------|
G|--555--000--555--000--555--999--7-7-7--do chorus x2-000000000000----------|
C|--555--000--555--000--555--999--7-7-7---------------000000000000----------|
                                
                               BAGPIPE BIT                               
D|--------------------------------------------------------------------------|
A|--2-2-----------------------7777--8888------------------------------------|
F|--3-3-------12--12----------6666--7777------------------------------------|
C|--0-0-------0---0-----x4----4444--5555---x2-------------------------------|
G|----------------------------4444--5555------------------------------------|
C|----------------------------4444--5555------------------------------------|

                                  OUTRO 

D|-------------------------------------------|
A|-------------------------------------------|
F|-------------------------------------------|
C|----4---0h2h4-----0-----4---0h2h2-----0----|
G|--------------0h2-----------------0h2----x2|
C|-00---0--------------00---0----------------|
  
 HOPE YOU ENJOY!!! MON THE BIFF!!!!!
Tap to rate this tab
 
# A B C D E F G H I J K L M N O P Q R S T U V W X Y Z