Song name
# A B C D E F G H I J K L M N O P Q R S T U V W X Y Z

Black Keys - Howlin For You tab

This tab might seem a bit odd because I broke my high E string a few days
 ago so if you find it easier to play some notes on that string, go ahead.
 It probably has some errors, feel free to comment. You can also improvise a lot so take 
this as a guiding line. P.S. USE TREMOLO

Intro:
------------------------------------------------------------------------|
----------8--5---5-------------5-8-5----------8--5---5------------------|
---------------7------------7----------------------7------------2b4p0---|
----------------------------------------------------------------------2-|
------------------------------------------------------------------------|
-0-3--5-0---------0-3--5-0-----------0-3--5-0----------0-3--5-0---------|

------------------------------------------------------------------------|
----------8--5---5-------------5-8-5----------8/10-8-5------------------|
---------------7------------7-----------------------------------2b4p0---|
----------------------------------------------------------------------2-|
------------------------------------------------------------------------|
-0-3--5-0---------0-3--5-0-----------0-3--5-0----------0-3--5-0---------|

Verse:
|----------|(x5) |----------------------|
|----------|     |----------------------|
|----------|     |----------------------|
|----------|     |----------------------|
|----------|     |----------------------|
|-0-3--5-0-|     |-0-3--5-7--5--3--2--0-|
                It's true...baby i'm...

And back to intro (play only the first phrase with a slight change)
--------------------------------------------------------------------------|
----------8--5---5-------------5-8-5-----------5--------------------------|
---------------7------------7---------------------7-4-2----------2b4p0----|
-----------------------------------------------------------------------2--|
--------------------------------------------------------------------------|
-0-3--5-0---------0-3--5-0-----------0-3--5-0-----------0-3--5-0----------|

And the verse again
|----------|(x5) |----------------------|
|----------|     |----------------------|
|----------|     |----------------------|
|----------|     |----------------------|
|----------|     |----------------------|
|-0-3--5-0-|     |-0-3--5-7--5--3--2--0-|
                It's true...baby i'm...

And that riff again with a slight change
----------------------------------------------------------------------------|
----------8--5---5-------------5-8-5----------8/10-8-5\3/5------------------|
---------------7------------7---------------------------------------2b4p0---|
--------------------------------------------------------------------------2-|
----------------------------------------------------------------------------|
-0-3--5-0---------0-3--5-0-----------0-3--5-0--------------0-3--5-0---------|

Ta ra ra ra ta, ta ra ra ra ta part:
--------------------------------------------|(2x)
--------------------------------------------|
------------------------------5-------------|
-----5-7--5----5------------5---7-----------|
-5-7---------7---7------5-7-------5-7-5-----|
-------------------3-0------------------3-0-|

--------------------------|
--------------------------|
--------------------------|
-------------------5h7-5--|
-5-7-7-7-7-7-7-7-7------5-|
------0-0-0-0-0-0-0-------|

And then the whole thing again. After the second Ta ra ra ra ta...play this:
--------------------------|--------------------------------------------------|
--------------------------|--17-17--17-17--17-17-17---15-15--15-15--15-15-15-|
--------------------------|--------------------------------------------------|
-------------------5h7-5--|--------------------------------------------------|
-5-7-7-7-7-7-7-7-7------5-|--------------------------------------------------|
------0-0-0-0-0-0-0-------|-0-----------------------0------------------------|

--------------------------------------------------------------------------|
---17-17--17-17--17-17-17--20-20--20-20--20-20-20--17-17--17-17--17-17-17-|
--------------------------------------------------------------------------|
--------------------------------------------------------------------------|
--------------------------------------------------------------------------|
-0-----------------------0------------------------0-----------------------|

----------------------------------------------------------------------------|
---15-15--15-15--15-15-15---17-17--17-17--17-17-17---20--20p17\15h17p15-----|
-----------------------------------------------------------------------16---|
-------------------------------------------------------------------------14-|
----------------------------------------------------------------------------|
-0------------------------0------------------------0------------------------|

----------------------------------------------------------------|
----------------------------------------------------------------|
----------14------------------------------17-14-----------------|
-12/14-17----17--14-17-14--------12/14-17--------14-17-14-------|
----------------------------------------------------------------|
--------------------------15-12---------------------------15-12-|
Tap to rate this tab
 
# A B C D E F G H I J K L M N O P Q R S T U V W X Y Z