Black Keys - Just A Little Heat tab

Just A Little Heat by The Black Keys




----------------------------|---------------------------|
-------------------------0--|----------------------/12--|
------------------------v4--|----------------------/12--| X4
----------------------------|----------------------/12--|
----2--4--2--4-/6-\4--------|----2--4--2--4-/6-\4-------|
-4--------------------4-----|-4-------------------------|

 PM--------------------------------------------------------------
-------------------------------|----------------------------------|
-------------------------------|----------------------------------|
-------------------------------|----------------------------------| X2
-------------------------------|----------------------------------|
----2--4--2--4-/6-\4-----------|----2--4--2--4-/6-\4--2--4--------|
-4--------------------4- 0-1-2-|-4--------------------------1-2-3-|



|--------------|     |------|
|--------------|     |------|
|--5\4------3--| X4  |--3\--|
|--5\4------3--|     |--3\--|
|--------------|     |------|
|--------------|     |------|

----------------------------|---------------------------|
-------------------------0--|----------------------/12--|
------------------------v4--|----------------------/12--| X2
----------------------------|----------------------/12--|
----2--4--2--4-/6-\4--------|----2--4--2--4-/6-\4-------|
-4--------------------4-----|-4-------------------------|

 PM--------------------------------------------------------------
-------------------------------|----------------------------------|
-------------------------------|----------------------------------|
-------------------------------|----------------------------------| X2
-------------------------------|----------------------------------|
----2--4--2--4-/6-\4-----------|----2--4--2--4-/6-\4--2--4--------|
-4--------------------4- 0-1-2-|-4--------------------------1-2-3-|

|--------------|     |------|
|--------------|     |------|
|--5\4------3--| X4  |--3\--|
|--5\4------3--|     |--3\--|
|--------------|     |------|
|--------------|     |------|

----------------------------|---------------------------|
-------------------------0--|----------------------/12--|
------------------------v4--|----------------------/12--| X2
----------------------------|----------------------/12--|
----2--4--2--4-/6-\4--------|----2--4--2--4-/6-\4-------|
-4--------------------4-----|-4-------------------------|

Solo w/ slide (I almost have it but it needs some work)

----------------------------|---------------------------|
-------------------------0--|----------------------/12--|
------------------------v4--|----------------------/12--| X2
----------------------------|----------------------/12--|
----2--4--2--4-/6-\4--------|----2--4--2--4-/6-\4-------|
-4--------------------4-----|-4-------------------------|

--------------------------------------------|
----------------0--------------/12----------|
--5------3-----v4------3-------/12-------5--|
--5------3-------------3-------/12-------5--|
--3------1-------------1-----------------3--|
--------------------------------------------|
Tap to rate this tab
 
# A B C D E F G H I J K L M N O P Q R S T U V W X Y Z