Song name
# A B C D E F G H I J K L M N O P Q R S T U V W X Y Z

Black Keys - Lonely Boy chords

Highlighted       Show chord diagrams
This tab is my first one i ever made so i hope it's everything fine i tabbed the riffs
at the beginning of the song and between the 1st chorus and 2nd verse i don't know
exactly what instrument is playing in the song but i figured out how u can play it on 
guitar so Enjoy it ;)


Chords:

Verse:
E:0799xx
G:3554xx
A:5776xx

Chorus:
E:022100
G:320003
A:002220


Intro:
   2x
e|------------------------------------------------|
b|------------------------------------------------|
g|-------99--9-7----------------------------------|
D|--------------7-5-7--77-7-5---------------------|
A|---------------------------7-5-7----------------|
E|------------------------------------------------|



and then (directly before 1st verse)
g|----------------------------------|
D|----------------------------------|
A|---7777-----7777-----7777-----7777|
E|-------7-5-0----7-5-0----7-5-0----|

Verse:
E
Well I'm so above you
G                   A
And It's fine to see
E                                  G         A
But I came to love you anyway
E
So you tore my heart out
G                       A
And I don't mind bleeding
E
Any old time you keep me waiting
G          A
Waiting, waiting

Chorus:
E               G               A
Oh, oh-oh I got a love that keeps me waiting
E               G               A
Oh, oh-oh I got a love that keeps me waiting
E
I'm a lonely boy
G               A
I'm a lonely boy
E               G               A
Oh, oh-oh I got a love that keeps me waiting


D|-----------------------------------------|
A|-----7777-----777---5--777-7-5-------7777|
E|---------7-5-0---0-7--0---------7-5-0----|

Verse:
E                               G               A
Well your mama kept you but your daddy left you
E                                       G              A
And I should've done you just the same
E                               G                   A
But i came to love you, am I born to bleed
E
Any old time you keep me waiting
G         A
Waiting, waiting


Chorus 2x

You can play the riff from te beginning between the first and the second chorus here
again two times :)
Tap to rate this tab
# A B C D E F G H I J K L M N O P Q R S T U V W X Y Z