Song name
# A B C D E F G H I J K L M N O P Q R S T U V W X Y Z

Black Keys - Mind Eraser tab

Hey guys, this is my first tab, I hope you like it. From the Black Keys' album El 
Camino. P.S. I may have missed a few notes here, but you've got what you need to fill it in. 
P.P.S. Sorry for so many spaces, like I said, this is my first tab.
Standard Tuning



Intro/Chorus
e:--------------------------------|
b:--------------------------------|
g:-----7-------7-------7-------7--|
d:7-7-9-9-7-7-9-9-7-7-9-9-7-7-9-9-|
a:--------------------------------|
e:--------------------------------|

1st Verse:  24 times.
e:--------|
b:--------|
g:--------|
d:--------|
a:---5----|
e:5-5-7-7-|
Intro/ Chorus


2nd Verse: 12 times
e:--------|
b:--------|
g:--------|
d:--------|
a:-----5--|
e:5-5-7-7-|


Solo:
e:12-12-12-12-12-12-12-12-10-10-10-10-10-10-10-10-9-9-9-9-9-9-9-9-7-7-7-7-7-7-|
b:----------------------------------------------------------------------------|
g:----------------------------------------------------------------------------|
d:----------------------------------------------------------------------------|
a:----------------------------------------------------------------------------|
e:----------------------------------------------------------------------------|

e:7-7-5-5-5-5--------------------------------------------------------------|
b:-----------7-7-7-7-5-5-5-5-3-3-3-3-3s5-5-5-5s7-7-7-7-7s10-10-10-10-10s14-|
g:-------------------------------------------------------------------------|
d:-------------------------------------------------------------------------|
a:-------------------------------------------------------------------------|
e:-------------------------------------------------------------------------|

e:12-12-12-12-|
b:14-14-14-14-|
g:------------|
d:------------|
a:------------|
e:------------|

Intro/Chorus

Outro
e:-----------------------10-10-10-10-10--10-14-12----------------------------|
b:12-12-12-12-12-12-12-12--------------12--------15p12-12-12-12-10s12-10-5s7-|
g:---------------------------------------------------------------------------|
d:---------------------------------------------------------------------------|
a:---------------------------------------------------------------------------|
e:---------------------------------------------------------------------------|

e:----|
b:----|
g:7---|
d:-9--|
a:----|
e:----|

That's it, thanks guys.
Tap to rate this tab
 
# A B C D E F G H I J K L M N O P Q R S T U V W X Y Z