Song name
# A B C D E F G H I J K L M N O P Q R S T U V W X Y Z

Black Keys - Run Right Back tab

My first post, maybe a few mistakes so let me know if you see any. Sounds best 
with finger-picking.

Standard tuning-E,A,D,G,B,E.
/=slide


CHORUS:

e|--------------------------------------------------------------------------|
b|-3/15-15-13--12--10--10-10-10/15--15--15--13--12--10--10-10-10/13--13--13-|
g|--------------------------------------------------------------------------|
d|--------------------------------------------------------------------------|
a|--------------------------------------------------------------------------|
e|--------------------------------------------------------------------------|

                                                                          1x
e|-------------------------------------------------------------------------|
b|-12--10---------------10-------------------------------------------------|
g|--------12--12-12-12-----------------------------------------------------|
d|-------------------------------------------------------------------------|
a|-------------------------------------------------------------------------|
e|-------------------------------------------------------------------------|

BRIDGE:
                                                                          1x
e|-------------------------------------------------------------------------|
b|-------------------------------------------------------------------------|
g|-------------------------------------------------------------------------|
d|-------------------------------------------------------------------------|
a|---1/5-5-3-5-3-----------------------------------------------------------|
e|-------------------------------------------------------------------------|

CHORUS:

e|--------------------------------------------------------------------------|
b|-3/15-15-13--12--10--10-10-10/15--15--15--13--12--10--10-10-10/13--13--13-|
g|--------------------------------------------------------------------------|
d|--------------------------------------------------------------------------|
a|--------------------------------------------------------------------------|
e|--------------------------------------------------------------------------|

                                                                          1x
e|-------------------------------------------------------------------------|
b|-12--10---------------10-------------------------------------------------|
g|--------12--12-12-12-----------------------------------------------------|
d|-------------------------------------------------------------------------|
a|-------------------------------------------------------------------------|
e|-------------------------------------------------------------------------|


CHORUS 2:
                                                                          2x
e|-------------------------------------------------------------------------|
b|-------------------------------------------------------------------------|
g|-------------------------------------------------------------------------|
d|------------------------7--7--7-7---7-7--7-7--7--5--7--7--7-7--7-7--7-7-5|
a|------------------------5--5--5-5---5-5--5-5--5--3--5--5--5-5--5-5--5-5-3|
e|----5-5-5-5-5-5-5-5------------------------------------------------------|


CHORUS 3:
                                                                          2x
e|-------------------------------------------------------------------------|
b|-------------------------------------------------------------------------|
g|-------------------------------------------------------------------------|
d|----7----7----7---7-7--5-------------------------------------------------|
a|----5----5----5---5-5--3-------------------------------------------------|
e|--5----5----5---5--------------------------------------------------------|


CHORUS 4
                                                                          2x
e|-------------------------------------------------------------------------|
b|-------------------------------------------------------------------------|
g|-------------------------------------------------------------------------|
d|-------------------------------------------------------------------------|
a|-------2--2-2-2-2-2-2--7-7-5-3-2-0---------------------------------------|
e|-------------------------------------------------------------------------|

After this the song repeats itself once, and then the intro twice, chorus 3 and then 
ends. Hope you found this helpful!!!!
Tap to rate this tab
 
# A B C D E F G H I J K L M N O P Q R S T U V W X Y Z