Song name
# A B C D E F G H I J K L M N O P Q R S T U V W X Y Z

Black Keys - Next Girl tab

This is a VERY easy song. This is my very first tab, but I am 100% sure it is right.
Timing and spacing may be a little off(once again first tab please leave comments. I know
there are probably easier ways to play this song, but I think it is easy enough already. 
It's not the cleanest looking
tab out there but it is correct.

e-------------------------------------------------------|
B-------------------------------------------------------|
G-------------------------------------------------------|
D---2-------------------2--4--6-6-6-6-6-6-6-6-4-4-4-4-2-|
A--------------------4----------------------------------|
E-------------------------------------------------------|

e--------------------|
B--------------------|
G--------------------|  X8
D--------------------|
A--2-4-2h4--2--------|
E--------------0-0---|

e-----------------------------------|
B-----------------------------------|
G-----------------------------------| X2
D-----2---------2---2h4-2------2----|
A-2-4---4---2-4---4--------2-4---4--|
E-----------------------------------|

e--------------------|
B--------------------|
G--------------------|  X6
D--------------------|
A--2-4-2h4--2--------|
E--------------0-0---|

e-------------------------------------------------------|
B-------------------------------------------------------|
G-------------------------------------------------------|
D-----2---------2---2h4-2------2---------2h4-2------2---|
A-2-4---4---2-4---4--------2-4---4---2-4--------2-4---4-|
E-------------------------------------------------------|

e--------------------------------------------------------|
B--------------------------------------------------------|
G--------------------------------------------------------|
D---2-4-6-6-6-6-6-6-6-6-4-4-4-4-2-2-2------2---------2---|
A-4------------------------------------2-4---4---2-4---4-|
E--------------------------------------------------------|

e---------------------------------|
B---------------------------------|
G---------------------------------|
D---2-4-6-6-6-6-6-6-6-6-4-4-4-4-2-|
A-4-------------------------------|
E---------------------------------|

e---------|       e-------|
B---------|       B-------|
G---------| X6    G-------|
D---------|       D-------|
A--2-4-2h4|       A--2-44-|
E---------|       E-------|
Tap to rate this tab
 
# A B C D E F G H I J K L M N O P Q R S T U V W X Y Z