Song name
# A B C D E F G H I J K L M N O P Q R S T U V W X Y Z

Black Label Society - Low Down tab

BLS - Low down solo

tab:a.k Senftleber :}

tuning badgbe

--------------------------------------------------10b--|
-10b-10b-10b-10b-10-7----------10b-10b-10b-10b---------|
----------------------10-9-7---------------------------|
-----------------------------9-------------------------|
-------------------------------------------------------|
-------------------------------------------------------|

-------------------------------------------|
-------------------------------------------|
-------------------------------------------|
-------------------------------------------|
-12-11-10-9-x2--11-10-9-8-x-2--10-9-8-7-x2-|
-------------------------------------------|

-----------------------------------------------------------|
-----------------------------------------------------------|
-----------------------------------------------------------|
-----------------------------------------------------------|
-9-8-7-6-x2-8-7-6-5-x2-7-6-5-4--x2--6-5-4-3-x2--5-4-3-2----|x2
-----------------------------------------------------------|

-------------------7---------10b-------------------------|
--------------7----10b--------------12b--------------9b--|
-9-7--------9-7----------------------------/9\---/9\-----|
-----9--7-9-----x2---------------------------------------|
---------------------------------------------------------|
---------------------------------------------------------|

-------------------------------10---------------12b------|
-------------11b---/10\---/10\------/12\---/12\----------|
-/11\---/11\---------------------------------------------|
---------------------------------------------------------|
---------------------------------------------------------|
---------------------------------------------------------|
Tap to rate this tab
 
# A B C D E F G H I J K L M N O P Q R S T U V W X Y Z