Guitaretab - guitar tabs
Song name
# A B C D E F G H I J K L M N O P Q R S T U V W X Y Z

Black Stone Cherry - Hell High Water tab

This song is tuned down a step, I did not tab out each stroke of the notes, but I feel 
sounds good when playing along with the song.  I also have not figured out Chris's lead 
through out the song, enjoy!

I know your hiding places, and I know your every move

e|--------------------------------------------------|
B|--------------------------------------------------|
G|--------------------------------------------------|
D|-9--9--9--9--7-7--7-7-----------------------------|
A|-9--9--9--9--7-7--7-7-----------------------------|
E|-7--7--6--6--5-5--4-4-----------------------------|

Cuz girl, I've been lonely too.     Repeat first 2 lines with verse
e|----------------------------------------------------|
B|----------------------------------------------------|
G|-----------------4----------------------------------|
D|---5---4---------4----4-----------------------------|
A|---5---4---------2----4-----------------------------|
E|---3---2--------------2-----------------------------|

And im gone thorugh hell and high water
e|--------------------------------------------------|
B|--------------------------------------------------|
G|-----7--------4-----------------------------------|
D|-----7---7----4-----------------------------------|
A|-----5---4----2-----------------------------------|
E|--------------------------------------------------|

Washed away with the tide
e|--------------------------------------------------|
B|--------------------------------------------------|
G|--------------------------------------------------|
D|--5----7------------------------------------------|
A|--5----7------------------------------------------|
E|--3----5------------------------------------------|
[ Tab from: http://www.guitaretab.com/b/black-stone-cherry/85968.html ]
I could lose a damn war all by myself
e|--------------------------------------------------|
B|--------------------------------------------------|
G|-----7--------4-----------------------------------|
D|-----7---7-7--4-----------------------------------|
A|-----5---4-3--2-----------------------------------|
E|--------------------------------------------------|

If you were on the other side
e|--------------------------------------------------|
B|--------------------------------------------------|
G|--------------------------------------------------|
D|--5----7------------------------------------------|
A|--5----7------------------------------------------|
E|--3----5------------------------------------------|

So in the morning when the rooster crows (palm muted)
e|----------------------------------------------------|
B|----------------------------------------------------|
G|--7-------------------------------------------------|
D|--7---7---------------------------------------------|
A|--5---3---------------------------------------------|
E|----------------------------------------------------|

Pack your backs and get ready to go
e|----------------------------------------------------|
B|----------------------------------------------------|
G|-----------------9----------------------------------|
D|--5--------------9----------------------------------|
A|--5--------------7----------------------------------|
E|--3-------------------------------------------------|

If your walking through hell and high water
e|----------------------------------------------------|
B|----------------------------------------------------|
G|-----7-------4--------------------------------------|
D|-----7---7---4--------------------------------------|
A|-----5---4---2--------------------------------------|
E|----------------------------------------------------|

Please donít do it alone
e|-----------------------------------------------------|
B|-----------------------------------------------------|
G|-------------7---------------------------------------|
D|-----5---7---7---------------------------------------|
A|-----5---7---5---------------------------------------|
E|-----3---5-------------------------------------------|

Repeat for the rest of the verses and stuff, I havenít tabbed the solos and such, enjoy 
out to this song!
Related for Hell High Water tab