Song name
# A B C D E F G H I J K L M N O P Q R S T U V W X Y Z

Black Stone Cherry - In My Blood tab

I play this in standard tuning, and listening to the song it seems pretty much right

Verse:

e------------------|----------------------|
B------------------|----------------------|
G------------------|----------------------|
D--7-7-7-7---------|----------------------|
A--5-5-5-5-7-7-7-7-|--10-10-10-10-8-7-7-7-|
E----------5-5-5-5-|--8--8--8--8--7-7-7-7-|


Chorus

listen to the song for the strumming pattern

  A      D      G     D
------|------|--3---|------|
--2---|--3---|--0---|--3---|
--2---|--2---|--0---|--2---|
--2---|--0---|--0---|--0---|
--0---|------|--2---|------|   These would be the main 4 chords...
------|------|--3---|------|

...even though i usually power chord the whole thing like this

--5---|--5---|------|------|
--5---|--5---|------|------|
--6---|--7---|------|------|
--7---|--7---|--5---|--4---|
--7---|--5---|--5---|--5---|
--5---|--5---|--3---|--2---|

Then we get to the

Bridge

  F     G
------|------|  You just need to repeat these 2 chords
------|------|
------|------|
--3---|--5---|
--3---|--5---|
--1---|--3---|

Solo

Rhythm guitar does a slighly different chord pattern A-F-G-D

While lead guitar does something like this: (probably it sounds a little different from 
the original but it's the best i could come up with)

------------------5---------------------------------------|
--5---5---5---5-----8p5-----------------------------------|
--8b9-8b9-8b9-8b9-------7-7b9-5---5-----------------------|
--------------------------------7---7-5-------------------|
----------------------------------------7-5----5h7--------|
--------------------------------------------10-----10-----|

--------------------------------------------------------------------------|
--------------------------------------------------------------------------|
----------------------------------5-7-5-------5-----5-----5-----5---------|
--------------------------5-7-5-7-------7-5h7---5h7---5h7---5h7---5h7p5---|
--------3---3-5-3-5-7-5-7-----------------------------------------------7-|
--5-3-5---5---------------------------------------------------------------|

--10b-10p8----8------------10b-10p8----8-----------------15-----------------|
-----------10---10-8-10-------------10---10-8-10--15b-17----17-15b-13----13-|
----------------------------------------------------------------------14----|
----------------------------------------------------------------------------|
----------------------------------------------------------------------------|
----------------------------------------------------------------------------|

--------17-------17-------17-------17--|
--15h17----15h17----15h17----15h17-----|
---------------------------------------|
---------------------------------------|
---------------------------------------|
---------------------------------------|
Tap to rate this tab
# A B C D E F G H I J K L M N O P Q R S T U V W X Y Z