Song name
# A B C D E F G H I J K L M N O P Q R S T U V W X Y Z

Blackmill - Let It Be tab

This is just the tab for the part of the song that sounds like a guitar.
^^ = bend up (need to bend it a lot to match tone)
      When the ^^ is after the numbers it means start in a bend and bend down to the natural tone
~ = slide

Repeat 4 times at around 1:10 min into the song
e--------------------------------------------------|
B-14---11---16^^-------18---16---14^^--------------|
D--------------------------------------------------|
G--------------------------------------------------|
A--------------------------------------------------|
E--------------------------------------------------|


Repeat 2 times at around 3:00 min into the song then play the part under this
e-------------------------------------------------------------|
B-14---11---16^^---16------21---18---^^16---14^^---11---------|
D-------------------------------------------------------------|
G-------------------------------------------------------------|
A-------------------------------------------------------------|
E-------------------------------------------------------------|


e----------------------------------------------------------------------------------|
B-14---11---16^^---16------21---18---^^16---16-21---18---^^16---16-21---16---21^^--|
D----------------------------------------------------------------------------------|
G----------------------------------------------------------------------------------|
A----------------------------------------------------------------------------------|
E----------------------------------------------------------------------------------|

e--------------------------------------------------------------------|
B---16---21^^--------------------------------------------------------|
D--------------------------------------------------------------------|
G--------------------------------------------------------------------|
A--------------------------------------------------------------------|
E--------------------------------------------------------------------|


And repeat that process as necessary til the songs over!

http://www.facebook.com/pages/Blackmill/167224433307649
Tap to rate this tab
# A B C D E F G H I J K L M N O P Q R S T U V W X Y Z