Song name
# A B C D E F G H I J K L M N O P Q R S T U V W X Y Z

Blackmill - The Drift tab

e-----------------------------------------------------------------------------|
B-----5-4-5---5-4-5-7-4-5-4-----5-4-5---5-4-5-7-5-4-7---5-7-4-5-4----5-4-5-5--|
G---6-------------------------6-------6---------------6-----------6-----------|
D-6---------6---------------6-------------------------------------------------|
A-----------------------------------------------------------------------------|
E-----------------------------------------------------------------------------|

e-----------------------------7-9-9----------------|
B---4-5-4-5---5-4-5-7--5-7-5-----------------------|
G-6---------6--------------------------------------|
D---------------------6-----6----------------------|
A--------------------------------------------------|
E--------------------------------------------------|
Tap to rate this tab
 
# A B C D E F G H I J K L M N O P Q R S T U V W X Y Z