Song name
# A B C D E F G H I J K L M N O P Q R S T U V W X Y Z

Blackmill - Rain tab

Song:   Rain
Artist: Blackmill
Album:  Reach For Glory


Guitar 1 - Piano_Chords1
Guitar 2 - Piano_Riff1
Guitar 3 - Electric Guitar Bends
Guitar 4 - Piano_Riff2
Guitar 5 - Orchestra
Guitar 6 - Extra_piano
Guitar 7 - Piano_Chords2
(Did not transcribe bass or echoey pipe sounds that start at 00:30)


Sorry if this tab has too many layers, making it difficult to follow.
It's a DnB song. That's what you get for learning it on guitar.




(0:00)
Guitar 1 (Piano Chords)
   Gm                 F                                       G
e|-3------------------1---------------------------------------3-------|
B|-3------------------1--------------------1------------------3-------|
G|-3------------------2--------------------0------------------0-------|x8
D|-5------------------3-----------------------------------------------|
A|--------------------------------------------------------------------|
E|--------------------------------------------------------------------|



(0:14)
Guitar 2 (Piano Melody)

e|------15---18----22--------15---17----22------15---18----22--------15---20----22-|
B|---15---------15----------------------------------------------15-----------15----|
G|----------------------14-----------14------17---------17-------------------------|
D|---------------------------------------------------------------------------------|x6
A|---------------------------------------------------------------------------------|
E|---------------------------------------------------------------------------------|


(0:36)
Guitar 3 (Electric Guitar Bends)
e|-13b15~~~~----------------|
B|-------------11b13~---8~~-|
G|--------------------------|x3 (Fade in and distort
D|--------------------------|     over 3 times)
A|--------------------------|
E|--------------------------|


(0:58)
   Guitar 1
e||-3--------------------1----------------------3--------------------3-----------------------||
B||-3--------------------1----------------------1--------------------3-----------------------||
G||-3--------------------2----------------------0--------------------0-----------------------||
D||-5--------------------3-------------------------------------------------------------------||
A||------------------------------------------------------------------------------------------||
E||------------------------------------------------------------------------------------------||
 |                                                                                            |
 |                                                                                            |
 | Guitar 4                                                                                   |
e||------------------------------------------------------20-18-------20-18-------------------||
B||------------------------------------------------------------22-18-------22-18-20-18-20-22-||
G||------------------------------------------------------------------------------------------||
D||------------------------------------------------------------------------------------------||
A||------------------------------------------------------------------------------------------||
E||------------------------------------------------------------------------------------------||
 |                                                                                            |
 |                                                                                            |
 | Guitar 5 (orchestra) (Each note should be played on seperate guitars) (Swell in volume)    |
e||-------------------------------------------------------------------------------15~~~~~~~~-||
B||---------------------------------------------15~~~~~~~~~~~~~~~~~~~~~~~~~~~~~~~~~~~~~~~~~~-||
G||------------------------------------------------------------------------------------------||
D||---------------------------------------------5~~~~~~~~~~~~~~~~~~~~~~~~~~~~~~~~~~~~~~~~~~~-||
A||------------------------------------------------------------------------------------------||
E||---------------------------------------------3~~~~~~~~~~~~~~~~~~~~~~~~~~~~~~~~~~~~~~~~~~~-||




(1:06) This right here is what a good portion of the remainder of the song is like,
       with some minor changes here and there. I have this written as 5 tracks playing
       all at once, so it may be a bit confusing. If you listen carefully, theres a
       lot going on.

     Guitar 1
e[||-3-----------------------1-----------------------3-----------------------3-----------------------|
B[||-3-----------------------1-----------------------1-----------------------3-----------------------|
G[||-3-----------------------2-----------------------0-----------------------0-----------------------|
D[||-5-----------------------3-----------------------------------------------------------------------|
A[||-------------------------------------------------------------------------------------------------|
E[||-------------------------------------------------------------------------------------------------|
 [|                                                                                                  |
 [|  Guitar 2                                                                                        |
e[||----------15---18----22------------15---17----22-----------15---18----22-----------15--20----22--|
B[||-------15---------15-----------------------------------------------------------15---------15-----|
G[||------------------------------14-----------14-----------17---------17----------------------------|
D[||-------------------------------------------------------------------------------------------------|
A[||-------------------------------------------------------------------------------------------------|
E[||-------------------------------------------------------------------------------------------------|
 [|                                                                                                  |
 [|  Guitar 3                                                                                        |
e[||-13b15~~~~~~~~~~~~~~~~~~~------------------------------------------------------------------------|
B[||-------------------------------------------------11b13~~~~~~~~~~~~~~~~~~-8~~~~~~~~~~~~~~~~~~~~~~-|
G[||-------------------------------------------------------------------------------------------------|
D[||-------------------------------------------------------------------------------------------------|
A[||-------------------------------------------------------------------------------------------------|
E[||-------------------------------------------------------------------------------------------------|
 [|                                                                                                  |
 [|  Guitar 4 (Piano Riff)                                                                           |
e[||-22-18-------22-18-------22-18----------------18-20-18-------20-18-------20-18-------------------|
B[||-------22-20-------22-20-------22-20-18-20-22----------22-18-------22-18-------22-18-20-18-20-22-|
G[||-------------------------------------------------------------------------------------------------|
D[||-------------------------------------------------------------------------------------------------|
A[||-------------------------------------------------------------------------------------------------|
E[||-------------------------------------------------------------------------------------------------|
 [|                                                                                                  |
 [|  Guitar 5 (Orchestra)                                                                            |
e[||-------------------------------------------------------------------------------------------------|
B[||-15~~~~~~~~~~~~~~~~~~~~~~10~~~~~~~~~~~~~~~~~~~~~~13~~~~~~~~~~~~~~~~~~~~~~8~~~~~~~~~~~~~~~~~~~~~~-|
G[||-------------------------------------------------------------------------------------------------|
D[||-------------------------------------------------------------------------------------------------|
A[||-------------------------------------------------------------------------------------------------|
E[||-------------------------------------------------------------------------------------------------|




   Guitar 1
e|-3-----------------------1-----------------------3-----------------------3-----------------------||]
B|-3-----------------------1-----------------------1-----------------------3-----------------------||]
G|-3-----------------------2-----------------------0-----------------------0-----------------------||]
D|-5-----------------------3-----------------------------------------------------------------------||]
A|-------------------------------------------------------------------------------------------------||]
E|-------------------------------------------------------------------------------------------------||]
 |                                                                                                  |]
 | Guitar 2                                                                                         |]
e|----------15---18----22------------15---17----22-----------15---18----22-----------15--20----22--||]
B|-------15---------15-----------------------------------------------------------15---------15-----||]
G|------------------------------14-----------14-----------17---------17----------------------------||]
D|-------------------------------------------------------------------------------------------------||]
A|-------------------------------------------------------------------------------------------------||]
E|-------------------------------------------------------------------------------------------------||]
 |                                                                                                  |]
 | Guitar 3                                                                                         |]
e|-13b15~~~~~~~~~~~~~~~~~~~------------------------------------------------------------------------||]
B|-------------------------------------------------11b13~~~~~~~~~~~~~~~~~~-8~~~~~~~~~~~~~~~~~~~~~~-||]
G|-------------------------------------------------------------------------------------------------||]
D|-------------------------------------------------------------------------------------------------||] x2
A|-------------------------------------------------------------------------------------------------||]
E|-------------------------------------------------------------------------------------------------||]
 |                                                                                                  |]
 | Guitar 4                                                                                         |]
e|-22-18-------22-18-------22-18----------------18-20-18-------20-18-------20-18-------------------||]
B|-------22-20-------22-20-------22-20-18-20-22----------22-18-------22-18-------22-18-20-18-20-22-||]
G|-------------------------------------------------------------------------------------------------||]
D|-------------------------------------------------------------------------------------------------||]
A|-------------------------------------------------------------------------------------------------||]
E|-------------------------------------------------------------------------------------------------||]
 |                                                                                                  |]
 | Guitar 5 (Orchestra)                                                                             |]
e|-------------------------------------------------------------------------------------------------||]
B|-15----------------------11~~~~~~~~~~~~~~~~~~~~~~10~~~~~~~~~~~~~~~~~~~~~~8~~~~~~~~~~~~~~~~~~~~~~-||]
G|-------------------------------------------------------------------------------------------------||]
D|-------------------------------------------------------------------------------------------------||]
A|-------------------------------------------------------------------------------------------------||]
E|-------------------------------------------------------------------------------------------------||]




(1:35)
   Guitar 1
e||-3-----------------------1-----------------------3-----------------------3-----------------------|
B||-3-----------------------1-----------------------1-----------------------3-----------------------|
G||-3-----------------------2-----------------------0-----------------------0-----------------------|
D||-5-----------------------3-----------------------------------------------------------------------|
A||-------------------------------------------------------------------------------------------------|
E||-------------------------------------------------------------------------------------------------|
 |                                                                                                  |
 |  Guitar 2                                                                                        |
e||----------15---18----22------------15---17----22-----------15---18----22-----------15--20----22--|
B||-------15---------15-----------------------------------------------------------15---------15-----|
G||------------------------------14-----------14-----------17---------17----------------------------|
D||-------------------------------------------------------------------------------------------------|
A||-------------------------------------------------------------------------------------------------|
E||-------------------------------------------------------------------------------------------------|
 |                                                                                                  |
 |  Guitar 4 (with an echoey delay)                                                                 |
e||-17-18-17-22-------------------------------------17-18-17-22-------------------------------------|
B||-------------20----------------------------------------------20----------------------------------|
G||-------------------------------------------------------------------------------------------------|
D||-------------------------------------------------------------------------------------------------|
A||-------------------------------------------------------------------------------------------------|
E||-------------------------------------------------------------------------------------------------|
 |                                                                                                  |
 |  Guitar 3                                                                                        |
e||-13b15~~~~~~~~~~~~~~~~~~~------------------------------------------------------------------------|
B||-------------------------------------------------11b13~~~~~~~~~~~~~~~~~~-8~~~~~~~~~~~~~~~~~~~~~~-|
G||-------------------------------------------------------------------------------------------------|
D||-------------------------------------------------------------------------------------------------|
A||-------------------------------------------------------------------------------------------------|
E||-------------------------------------------------------------------------------------------------|
 |                                                                                                  |
 |  Guitar 5 (Fade out)                                                                             |
e||-------------------------------------------------------------------------------------------------|
B||-15~~~~~~~~~~~~~~~~~~~~~~10~~~~~~~~~~~~~~--------------------------------------------------------|
G||-------------------------------------------------------------------------------------------------|
D||-------------------------------------------------------------------------------------------------|
A||-------------------------------------------------------------------------------------------------|
E||-------------------------------------------------------------------------------------------------|



(1:43)
   Guitar 1
e|-3-----------------------1-----------------------3-----------------------3-----------------------||
B|-3-----------------------1-----------------------1-----------------------3-----------------------||
G|-3-----------------------2-----------------------0-----------------------0-----------------------||
D|-5-----------------------3-----------------------------------------------------------------------||
A|-------------------------------------------------------------------------------------------------||
E|-------------------------------------------------------------------------------------------------||
 |                                                                                                  |
 | Guitar 2                                                                                         |
e|----------15---18----22------------15---17----22-----------15---18----22-----------15--20----22--||
B|-------15---------15-----------------------------------------------------------15---------15-----||
G|------------------------------14-----------14-----------17---------17----------------------------||
D|-------------------------------------------------------------------------------------------------||
A|-------------------------------------------------------------------------------------------------||
E|-------------------------------------------------------------------------------------------------||
 |                                                                                                  |
 | Guitar 3                                                                                         |
e|-13b15~~~~~~~~~~~~~~~~~~~------------------------------------------------------------------------||
B|-------------------------------------------------11b13~~~~~~~~~~~~~~~~~~-8~~~~~~~~~~~~~~~~~~~~~~-||
G|-------------------------------------------------------------------------------------------------||
D|-------------------------------------------------------------------------------------------------||
A|-------------------------------------------------------------------------------------------------||
E|-------------------------------------------------------------------------------------------------||
 |                                                                                                  |
 | Guitar 4                                                                                         |
e|-17-18-17-22-------------------------------------17-18-17-22-------------------------------------||
B|-------------20----------------------------------------------20----------------------------------||
G|-------------------------------------------------------------------------------------------------||
D|-------------------------------------------------------------------------------------------------||
A|-------------------------------------------------------------------------------------------------||
E|-------------------------------------------------------------------------------------------------||




(1:50)
    Guitar 1
e[||-3-----------------------1-----------------------3-----------------------3-----------------------|
B[||-3-----------------------1-----------------------1-----------------------3-----------------------|
G[||-3-----------------------2-----------------------0-----------------------0-----------------------|
D[||-5-----------------------3-----------------------------------------------------------------------|
A[||-------------------------------------------------------------------------------------------------|
E[||-------------------------------------------------------------------------------------------------|
 [|                                                                                                  |
 [|  Guitar 2                                                                                        |
e[||----------15---18----22------------15---17----22-----------15---18----22-----------15--20----22--|
B[||-------15---------15-----------------------------------------------------------15---------15-----|
G[||------------------------------14-----------14-----------17---------17----------------------------|
D[||-------------------------------------------------------------------------------------------------|
A[||-------------------------------------------------------------------------------------------------|
E[||-------------------------------------------------------------------------------------------------|
 [|                                                                                                  |
 [|  Guitar 3                                                                                        |
e[||-13b15~~~~~~~~~~~~~~~~~~~------------------------------------------------------------------------|
B[||-------------------------------------------------11b13~~~~~~~~~~~~~~~~~~-8~~~~~~~~~~~~~~~~~~~~~~-|
G[||-------------------------------------------------------------------------------------------------|
D[||-------------------------------------------------------------------------------------------------|
A[||-------------------------------------------------------------------------------------------------|
E[||-------------------------------------------------------------------------------------------------|
 [|                                                                                                  |
 [|  Guitar 4                                                                                        |
e[||-17-18-17-22-------------------------------------17-18-17-22-------------------------------------|
B[||-------------20----------------------------------------------20----------------------------------|
G[||-------------------------------------------------------------------------------------------------|
D[||-------------------------------------------------------------------------------------------------|
A[||-------------------------------------------------------------------------------------------------|
E[||-------------------------------------------------------------------------------------------------|
 [|                                                                                                  |
 [|  Guitar 5 (Orchestra)                                                                            |
e[||-------------------------------------------------------------------------------------------------|
B[||-15----------------------10~~~~~~~~~~~~~~~~~~~~~~13~~~~~~~~~~~~~~~~~~~~~~8~~~~~~~~~~~~~~~~~~~~~~-|
G[||-------------------------------------------------------------------------------------------------|
D[||-------------------------------------------------------------------------------------------------|
A[||-------------------------------------------------------------------------------------------------|
E[||-------------------------------------------------------------------------------------------------|



   Guitar 1
e|-3-----------------------1-----------------------3-----------------------3-----------------------||]
B|-3-----------------------1-----------------------1-----------------------3-----------------------||]
G|-3-----------------------2-----------------------0-----------------------0-----------------------||]
D|-5-----------------------3-----------------------------------------------------------------------||]
A|-------------------------------------------------------------------------------------------------||]
E|-------------------------------------------------------------------------------------------------||]
 |                                                                                                  |]
 | Guitar 2                                                                                         |]
e|----------15---18----22------------15---17----22-----------15---18----22-----------15--20----22--||]
B|-------15---------15-----------------------------------------------------------15---------15-----||]
G|------------------------------14-----------14-----------17---------17----------------------------||]
D|-------------------------------------------------------------------------------------------------||]
A|-------------------------------------------------------------------------------------------------||]
E|-------------------------------------------------------------------------------------------------||]
 |                                                                                                  |]
 | Guitar 3                                                                                         |]
e|-13b15~~~~~~~~~~~~~~~~~~~------------------------------------------------------------------------||]
B|-------------------------------------------------11b13~~~~~~~~~~~~~~~~~~-8~~~~~~~~~~~~~~~~~~~~~~-||]
G|-------------------------------------------------------------------------------------------------||]
D|-------------------------------------------------------------------------------------------------||] x2
A|-------------------------------------------------------------------------------------------------||]
E|-------------------------------------------------------------------------------------------------||]
 |                                                                                                  |]
 | Guitar 4                                                                                         |]
e|-17-18-17-22-------------------------------------17-18-17-22-------------------------------------||]
B|-------------20----------------------------------------------20----------------------------------||]
G|-------------------------------------------------------------------------------------------------||]
D|-------------------------------------------------------------------------------------------------||]
A|-------------------------------------------------------------------------------------------------||]
E|-------------------------------------------------------------------------------------------------||]
 |                                                                                                  |]
 | Guitar 5 (Orchestra)                                                                             |]
e|-------------------------------------------------------------------------------------------------||]
B|-15----------------------11~~~~~~~~~~~~~~~~~~~~~~10~~~~~~~~~~~~~~~~~~~~~~8~~~~~~~~~~~~~~~~~~~~~~-||]
G|-------------------------------------------------------------------------------------------------||]
D|-------------------------------------------------------------------------------------------------||]
A|-------------------------------------------------------------------------------------------------||]
E|-------------------------------------------------------------------------------------------------||]





(2:20)
    Guitar 1
e||-------------------------------------------------3-----------------------------------------------||
B||-3-----------------------1-----------------------1-----------------------3-----------------------||
G||-3-----------------------2-2---------------------0-----------------------0-----------------------||
D||-5-----------------------3-----------------------------------------------------------------------||
A||-------------------------------------------------------------------------------------------------||
E||-------------------------------------------------------------------------------------------------||
 |                                                                                                   |
 |  Guitar 2                                                                                         |
e||----------15---18----22------------15---17----22-----------15---18----22-----------15--20----22--||
B||-------15---------15-----------------------------------------------------------15---------15-----||
G||------------------------------14-----------14-----------17---------17----------------------------||
D||-------------------------------------------------------------------------------------------------||
A||-------------------------------------------------------------------------------------------------||
E||-------------------------------------------------------------------------------------------------||
 |                                                                                                   |
 |  Guitar 4                                                                                         |
e||-------------------------------------------------------------20-18-------20-18-------------------||
B||-------------------------------------------------------------------22-18-------22-18-20-18-20-22-||
G||-------------------------------------------------------------------------------------------------||
D||-------------------------------------------------------------------------------------------------||
A||-------------------------------------------------------------------------------------------------||
E||-------------------------------------------------------------------------------------------------||



(2:27)
     Guitar 1
e[||-3-----------------------1-----------------------3-----------------------3-----------------------||]
B[||-3-----------------------1-----------------------1-----------------------3-----------------------||]
G[||-3-----------------------2-----------------------0-----------------------0-----------------------||]
D[||-5-----------------------3-----------------------------------------------------------------------||]
A[||-------------------------------------------------------------------------------------------------||]
E[||-------------------------------------------------------------------------------------------------||]
 [|                                                                                                  ||]
 [|  Guitar 2 (Barely audible)                                                                       ||]
e[||----------15---18----22------------15---17----22-----------15---18----22-----------15--20----22--||]
B[||-------15---------15-----------------------------------------------------------15---------15-----||]
G[||------------------------------14-----------14-----------17---------17----------------------------||]
D[||-------------------------------------------------------------------------------------------------||]
A[||-------------------------------------------------------------------------------------------------||]
E[||-------------------------------------------------------------------------------------------------||]
 [|                                                                                                  ||]
 [|  Guitar 3                                                                                        ||]
e[||-13~~~~~~~b15~~~~~r13~~~~10----13----10----------------------------------10~~~~~~~~~~~~~~~~~~~~~-||]
B[||-------------------------------------------13---/13~~~~~~~~~~~~~~~~~~~---------------------------||]
G[||-------------------------------------------------------------------------------------------------||]
D[||-------------------------------------------------------------------------------------------------||]x4
A[||-------------------------------------------------------------------------------------------------||]
E[||-------------------------------------------------------------------------------------------------||]
 [|                                                                                                  ||]
 [|  Guitar 4 (Piano Riff)                                                                           ||]
e[||-22-18-------22-18-------22-18----------------18-20-18-------20-18-------20-18-------------------||]
B[||-------22-20-------22-20-------22-20-18-20-22----------22-18-------22-18-------22-18-20-18-20-22-||]
G[||-------------------------------------------------------------------------------------------------||]
D[||-------------------------------------------------------------------------------------------------||]
A[||-------------------------------------------------------------------------------------------------||]
E[||-------------------------------------------------------------------------------------------------||]
 [|                                                                                                  ||]
 [|  Guitar 5 (Orchestra)*                                                                           ||]
e[||-13~~~~~~~~~~~~~~~~~~~~~~10~~~~~~~~~~~~~~~~~~~~~~8~~~~~~~~~~~~~~~~~~~~~~~------------------------||]
B[||-11~~~~~~~~~~~~~~~~~~~~~~10~~~~~~~~~~~~~~~~~~~~~~10~~~~~~~~~~~~~~~~~~~~~~8~~~~~~~~~~~~~~~~~~~~~~-||]
G[||-------------------------------------------------------------------------------------------------||]
D[||-8~~~~~~~~~~~~~~~~~~~~~~~7~~~~~~~~~~~~~~~~~~~~~~~7~~~~~~~~~~~~~~~~~~~~~~~5~~~~~~~~~~~~~~~~~~~~~~-||]
A[||-------------------------------------------------------------------------------------------------||]
E[||-------------------------------------------------------------------------------------------------||]
     *On the 3rd and 4th repeats, the orchestra track has some notes go
      up higher than the reach of a guitar. Its still the same notes, just
      up an octave or 2.




(2:57)
    Guitar 1
e||-3-----------------------1-----------------------3-----------------------3-----------------------||
B||-3-----------------------1-----------------------1-----------------------3-----------------------||
G||-3-----------------------2-----------------------0-----------------------0-----------------------||
D||-5-----------------------3-----------------------------------------------------------------------||
A||-------------------------------------------------------------------------------------------------||
E||-------------------------------------------------------------------------------------------------||
 |                                                                                                   |
 |  Guitar 4                                                                                         |
e||-17-18-17-22-------------------------------------17-18-17-22-------------------------------------||
B||-------------20----------------------------------------------20----------------------------------||
G||-------------------------------------------------------------------------------------------------||
D||-------------------------------------------------------------------------------------------------||
A||-------------------------------------------------------------------------------------------------||
E||-------------------------------------------------------------------------------------------------||
 |                                                                                                   |
 |  Guitar 5 (Orchestra)                                                                             |
e||-------------------------------------------------------------------------13----------------------||
B||-13~~~~~~~~~~~~~~~~~~~~~~13b15~~~~~~~~~~~~~~~----------------------------------------------------||
G||-------------------------------------------------------------------------------------------------||
D||-------------------------------------------------------------------------------------------------||
A||-------------------------------------------------------------------------------------------------||
E||-------------------------------------------------------------------------------------------------||




    Guitar 1
e||-3-----------------------1-----------------------3-----------------------3-----------------------||
B||-3-----------------------1-----------------------1-----------------------3-----------------------||
G||-3-----------------------2-----------------------0-----------------------0-----------------------||
D||-5-----------------------3-----------------------------------------------------------------------||
A||-------------------------------------------------------------------------------------------------||
E||-------------------------------------------------------------------------------------------------||
 |                                                                                                   |
 |  Guitar 4                                                                                         |
e||-17-18-17-22-------------------------------------17-18-17-22-------------------------------------||
B||-------------20----------------------------------------------20----------------------------------||
G||-------------------------------------------------------------------------------------------------||
D||-------------------------------------------------------------------------------------------------||
A||-------------------------------------------------------------------------------------------------||
E||-------------------------------------------------------------------------------------------------||
 |                                                                                                   |
 |  Guitar 5 (Orchestra)                                                                             |
e||-------------------------------------------------------------------------------------------------||
B||-11~~~~~~~~~~~~~~~~~~~~~~10~~~~~~~~~~~~~~~~~~~~~~8~~~~~~~~~~~~~~~~~~~~~~~6-----------------------||
G||-------------------------------------------------------------------------------------------------||
D||-------------------------------------------------------------------------------------------------||
A||-------------------------------------------------------------------------------------------------||
E||-------------------------------------------------------------------------------------------------||



    Guitar 1
e||-3-----------------------1-----------------------3-----------------------3-----------------------||
B||-3-----------------------1-----------------------1-----------------------3-----------------------||
G||-3-----------------------2-----------------------0-----------------------0-----------------------||
D||-5-----------------------3-----------------------------------------------------------------------||
A||-------------------------------------------------------------------------------------------------||
E||-------------------------------------------------------------------------------------------------||
 |                                                                                                   |
 |  Guitar 4                                                                                         |
e||-17-18-17-22-------------------------------------------------------------------------------------||
B||-------------20----------------------------------------------------------------------------------||
G||-------------------------------------------------------------------------------------------------||
D||-------------------------------------------------------------------------------------------------||
A||-------------------------------------------------------------------------------------------------||
E||-------------------------------------------------------------------------------------------------||
 |                                                                                                   |
 |  Guitar 5 (Orchestra)                                                                             |
e||-------------------------------------------------------------------------------------------------||
B||-6b8~~~~~~~~~~~~~~~~~~~~~~~~~~~~~~~~~~~~~~~~~~~~~~~~~~~~~~~~~~~~~~~~~~~~~~~~~~~~~~~~-------------||
G||-------------------------------------------------------------------------------------------------||
D||-------------------------------------------------------------------------------------------------||
A||-------------------------------------------------------------------------------------------------||
E||-------------------------------------------------------------------------------------------------||






(3:18) This part has 3 piano tracks
    Guitar 1
e||-3-----------------------1-----------------------3-----------------------3-----------------------||
B||-3-----------------------1-----------------------1-----------------------3-----------------------||
G||-3-----------------------2-----------------------0-----------------------0-----------------------||
D||-5-----------------------3-----------------------------------------------------------------------||
A||-------------------------------------------------------------------------------------------------||
E||-------------------------------------------------------------------------------------------------||
 |                                                                                                   |
 |  Guitar 4                                                                                         |
e||-17-18-17-22-------------------------------------------------------------------------15----------||
B||-------------20-------------------------------18----------------------------------------------18-||
G||-------------------------------------------------------------------------------------------------||
D||-------------------------------------------------------------------------------------------------||
A||-------------------------------------------------------------------------------------------------||
E||-------------------------------------------------------------------------------------------------||
 |                                                                                                   |
 |  Guitar 6                                                                                         |
e||-------------------------------------------------------------------------------------------------||
B||-------15-------15----15-------15-------15----15-------15-------15----15-------15-------15----15-||
G||----------------------------14-------14----14-------15-------15----15-------15-------15----15----||
D||-13-17----13-17----17----15-------15-------------17-------17-------------17-------17-------------||
A||-------------------------------------------------------------------------------------------------||
E||-------------------------------------------------------------------------------------------------||




(3:26)
     Guitar 4
e[||-------------------------22----------------------------------------------22----------------22----|
B[||-15----------------------------------------------15----------------------------------------------|
G[||-------------------------------------------------------------------------------------------------|
D[||-------------------------------------------------------------------------------------------------|
A[||-------------------------------------------------------------------------------------------------|
E[||-------------------------------------------------------------------------------------------------|
 [|                                                                                                  |
 [|   Guitar 6 (very quiet)                                                                          |
e[||-------------------------------------------------------------------------------------------------|
B[||-------15-------15----15-------15-------15----18-------15-------15----15-------15-------15----15-|
G[||----------------------------14-------14----14-------15-------15----15-------15-------15----15----|
D[||-13-17----13-17----17----15-------15-------------17-------17-------------17-------17-------------|
A[||-------------------------------------------------------------------------------------------------|
E[||-------------------------------------------------------------------------------------------------|



   Guitar 4
e|-20-18-1715--------22----20-181715---------------------------------------------------15-------13-||]
B|-----------15---------------------15----18-------15----------------------------------------------||]
G|-------------------------------------------------------------------------------------------------||]
D|-------------------------------------------------------------------------------------------------||]
A|-------------------------------------------------------------------------------------------------||]
E|-------------------------------------------------------------------------------------------------||]
 |                                                                                                  |]
 | Guitar 6                                                                                         |]x2
e|-------------------------------------------------------------------------------------------------||]
B|-------15-------15----15-------15-------15----15-------15-------15----15-------15-------15----15-||]
G|----------------------------14-------14----14-------15-------15----15-------15-------15----15----||]
D|-13-17----13-17----17----15-------15-------------17-------17-------------17-------17-------------||]
A|-------------------------------------------------------------------------------------------------||]
E|-------------------------------------------------------------------------------------------------||]




(3:56)
    Guitar 1
e||-3-----------------------1-----------------------3-----------------------3-----------------------||
B||-3-----------------------1-----------------------1-----------------------3-----------------------||
G||-3-----------------------2-----------------------0-----------------------0-----------------------||
D||-5-----------------------3-----------------------------------------------------------------------||
A||-------------------------------------------------------------------------------------------------||
E||-------------------------------------------------------------------------------------------------||
 |                                                                                                   |
 |  Guitar 2                                                                                         |
e||----------15---18----22------------15---17----22-----------15---18----22-----------15--20----22--||
B||-------15---------15-----------------------------------------------------------15---------15-----||
G||------------------------------14-----------14-----------17---------17----------------------------||
D||-------------------------------------------------------------------------------------------------||
A||-------------------------------------------------------------------------------------------------||
E||-------------------------------------------------------------------------------------------------||
 |                                                                                                   |
 |  Guitar 4 (1)                                                                                     |
e||-17-18-17-22-------------------------------------------------------------------------------------||
B||-------------20-------------------------------18-------------------------------------------------||
G||-------------------------------------------------------------------------------------------------||
D||-------------------------------------------------------------------------------------------------||
A||-------------------------------------------------------------------------------------------------||
E||-------------------------------------------------------------------------------------------------||
 |                                                                                                   |
 |  Guitar 4 (2)                                                                                     |
e||-------------------------22----------------------------------------------22----------------22----||
B||-15----------------------------------------------15----------------------------------------------||
G||-------------------------------------------------------------------------------------------------||
D||-------------------------------------------------------------------------------------------------||
A||-------------------------------------------------------------------------------------------------||
E||-------------------------------------------------------------------------------------------------||
 |                                                                                                   |
 |  Guitar 6 (return to normal volume)                                                               |
e||-------------------------------------------------------------------------------------------------||
B||-------15-------15----15-------15-------15----15-------15-------15----15-------15-------15----15-||
G||----------------------------14-------14----14-------15-------15----15-------15-------15----15----||
D||-13-17----13-17----17----15-------15-------------17-------17-------------17-------17-------------||
A||-------------------------------------------------------------------------------------------------||
E||-------------------------------------------------------------------------------------------------||





    Guitar 1
e||-3-----------------------1-----------------------3-----------------------3-----------------------||
B||-3-----------------------1-----------------------1-----------------------3-----------------------||
G||-3-----------------------2-----------------------0-----------------------0-----------------------||
D||-5-----------------------3-----------------------------------------------------------------------||
A||-------------------------------------------------------------------------------------------------||
E||-------------------------------------------------------------------------------------------------||
 |                                                                                                   |
 |  Guitar 2                                                                                         |
e||----------15---18----22------------15---17----22-----------15---18----22-----------15--20----22--||
B||-------15---------15-----------------------------------------------------------15---------15-----||
G||------------------------------14-----------14-----------17---------17----------------------------||
D||-------------------------------------------------------------------------------------------------||
A||-------------------------------------------------------------------------------------------------||
E||-------------------------------------------------------------------------------------------------||
 |                                                                                                   |
 |  Guitar 3                                                                                         |
e||-13b15~~~~~~~~~~~~~~~~~~~------------------------------------------------------------------------||
B||-------------------------------------------------11b13~~~~~~~~~~~~~~~~~~-8~~~~~~~~~~~~~~~~~~~~~~-||
G||-------------------------------------------------------------------------------------------------||
D||-------------------------------------------------------------------------------------------------||
A||-------------------------------------------------------------------------------------------------||
E||-------------------------------------------------------------------------------------------------||
 |                                                                                                   |
 |  Guitar 4                                                                                         |
e||-20-18-1715--------22----20-181715---------------------------------------------------15-------13-||
B||-----------15---------------------15----18-------15----------------------------------------------||
G||-------------------------------------------------------------------------------------------------||
D||-------------------------------------------------------------------------------------------------||
A||-------------------------------------------------------------------------------------------------||
E||-------------------------------------------------------------------------------------------------||
 |                                                                                                   |
 |  Guitar 6                                                                                         |
e||-------------------------------------------------------------------------------------------------||
B||-------15-------15----15-------15-------15----15-------15-------15----15-------15-------15----15-||
G||----------------------------14-------14----14-------15-------15----15-------15-------15----15----||
D||-13-17----13-17----17----15-------15-------------17-------17-------------17-------17-------------||
A||-------------------------------------------------------------------------------------------------||
E||-------------------------------------------------------------------------------------------------||






(4:11)
    Guitar 1
e||-3-----------------------1-----------------------3-----------------------3-----------------------||
B||-3-----------------------1-----------------------1-----------------------3-----------------------||
G||-3-----------------------2-----------------------0-----------------------0-----------------------||
D||-5-----------------------3-----------------------------------------------------------------------||
A||-------------------------------------------------------------------------------------------------||
E||-------------------------------------------------------------------------------------------------||
 |                                                                                                   |
 |  Guitar 2                                                                                         |
e||----------15---18----22------------15---17----22-----------15---18----22-----------15--20----22--||
B||-------15---------15-----------------------------------------------------------15---------15-----||
G||------------------------------14-----------14-----------17---------17----------------------------||
D||-------------------------------------------------------------------------------------------------||
A||-------------------------------------------------------------------------------------------------||
E||-------------------------------------------------------------------------------------------------||
 |                                                                                                   |
 |  Guitar 3                                                                                         |
e||-13b15~~~~~~~~~~~~~~~~~~~------------------------------------------------------------------------||
B||-------------------------------------------------11b13~~~~~~~~~~~~~~~~~~-8~~~~~~~~~~~~~~~~~~~~~~-||
G||-------------------------------------------------------------------------------------------------||
D||-------------------------------------------------------------------------------------------------||
A||-------------------------------------------------------------------------------------------------||
E||-------------------------------------------------------------------------------------------------||
 |                                                                                                   |
 |  Guitar 4 (2)                                                                                     |
e||-------------------------22----------------------------------------------22----------------22----||
B||-15----------------------------------------------15----------------------------------------------||
G||-------------------------------------------------------------------------------------------------||
D||-------------------------------------------------------------------------------------------------||
A||-------------------------------------------------------------------------------------------------||
E||-------------------------------------------------------------------------------------------------||
 |                                                                                                   |
 |  Guitar 6                                                                                         |
e||-------------------------------------------------------------------------------------------------||
B||-------15-------15----15-------15-------15----15-------15-------15----15-------15-------15----15-||
G||----------------------------14-------14----14-------15-------15----15-------15-------15----15----||
D||-13-17----13-17----17----15-------15-------------17-------17-------------17-------17-------------||
A||-------------------------------------------------------------------------------------------------||
E||-------------------------------------------------------------------------------------------------||





    Guitar 1
e||-3-----------------------1-----------------------3-----------------------3-----------------------||
B||-3-----------------------1-----------------------1-----------------------3-----------------------||
G||-3-----------------------2-----------------------0-----------------------0-----------------------||
D||-5-----------------------3-----------------------------------------------------------------------||
A||-------------------------------------------------------------------------------------------------||
E||-------------------------------------------------------------------------------------------------||
 |                                                                                                   |
 |  Guitar 2                                                                                         |
e||----------15---18----22------------15---17----22-----------15---18----22-----------15--20----22--||
B||-------15---------15-----------------------------------------------------------15---------15-----||
G||------------------------------14-----------14-----------17---------17----------------------------||
D||-------------------------------------------------------------------------------------------------||
A||-------------------------------------------------------------------------------------------------||
E||-------------------------------------------------------------------------------------------------||
 |                                                                                                   |
 |  Guitar 3                                                                                         |
e||-13b15~~~~~~~~~~~~~~~~~~~------------------------------------------------------------------------||
B||-------------------------------------------------11b13~~~~~~~~~~~~~~~~~~-8~~~~~~~~~~~~~~~~~~~~~~-||
G||-------------------------------------------------------------------------------------------------||
D||-------------------------------------------------------------------------------------------------||
A||-------------------------------------------------------------------------------------------------||
E||-------------------------------------------------------------------------------------------------||
 |                                                                                                   |
 |  Guitar 4                                                                                         |
e||-20-18-1715--------22----20-181715---------------------------------------------------15-------13-||
B||-----------15---------------------15----18-------15----------------------------------------------||
G||-------------------------------------------------------------------------------------------------||
D||-------------------------------------------------------------------------------------------------||
A||-------------------------------------------------------------------------------------------------||
E||-------------------------------------------------------------------------------------------------||
 |                                                                                                   |
 |  Guitar 6                                                                                         |
e||-------------------------------------------------------------------------------------------------||
B||-------15-------15----15-------15-------15----15-------15-------15----15-------15-------15----15-||
G||----------------------------14-------14----14-------15-------15----15-------15-------15----15----||
D||-13-17----13-17----17----15-------15-------------17-------17-------------17-------17-------------||
A||-------------------------------------------------------------------------------------------------||
E||-------------------------------------------------------------------------------------------------||





(4:25)
   Guitar 1
e||-3-----------------------1-----------------------3-----------------------------------------------||
B||-3-----------------------1-----------------------1-----------------------------------------------||
G||-3-----------------------2-----------------------0-----------------------------------------------||
D||-5-----------------------3-----------------------------------------------------------------------||
A||-------------------------------------------------------------------------------------------------||
E||-------------------------------------------------------------------------------------------------||
 |                                                                                                   |
 |  Guitar 2                                                                                         |
e||----------15---18----22------------15---17----22-----------15---18----22---------15--------------||
B||-------15---------15-------------------------------------------------------------15--------------||
G||------------------------------14-----------14-----------17---------17----------------------------||
D||-------------------------------------------------------------------------------------------------||
A||-------------------------------------------------------------------------------------------------||
E||-------------------------------------------------------------------------------------------------||
 |                                                                                                   |
 |  Guitar 4                                                                                         |
e||-------------------------------------------------------------20-18-------20-18-------------------||
B||-------------------------------------------------------------------22-18-------22-18-20-18-20-22-||
G||-------------------------------------------------------------------------------------------------||
D||-------------------------------------------------------------------------------------------------||
A||-------------------------------------------------------------------------------------------------||
E||-------------------------------------------------------------------------------------------------||
 |                                                                                                   |
 |  Guitar 6                                                                                         |
e||------------15-----------17---15--18--17-----151820---152022---------------------25--27--25--27--||
B||------------15-------------------------------------------------------------------*---*---*---*---||
G||-------------------------------------------------------------------------------------------------||
D||-------------------------------------------------------------------------------------------------||
A||-------------------------------------------------------------------------------------------------||
E||-------------------------------------------------------------------------------------------------||
                                             No guitar can go this high. Pianos can.^
                                         Get creative with bends/whammy/pedal/slide.|
                                         Or play 13-15 on the high e string instead.|
                                                                                -----



(4:32)
     Guitar 1
e[||-3-----------------------1-----------------------3-----------------------3-----------------------||]
B[||-3-----------------------1-----------------------1-----------------------3-----------------------||]
G[||-3-----------------------2-----------------------0-----------------------0-----------------------||]
D[||-5-----------------------3-----------------------------------------------------------------------||]
A[||-------------------------------------------------------------------------------------------------||]
E[||-------------------------------------------------------------------------------------------------||]
 [|                                                                                                   |]
 [|  Guitar 2 (Barely audible)                                                                        |]
e[||----------15---18----22------------15---17----22-----------15---18----22-----------15--20----22--||]
B[||-------15---------15-----------------------------------------------------------15---------15-----||]
G[||------------------------------14-----------14-----------17---------17----------------------------||]
D[||-------------------------------------------------------------------------------------------------||]
A[||-------------------------------------------------------------------------------------------------||]
E[||-------------------------------------------------------------------------------------------------||]
 [|                                                                                                   |]
 [|  Guitar 3                                                                                         |]
e[||-13~~~~~~~b15~~~~~r13~~~~10----13----10----------------------------------10~~~~~~~~~~~~~~~~~~~~~-||]
B[||-------------------------------------------13---/13~~~~~~~~~~~~~~~~~~~---------------------------||]
G[||-------------------------------------------------------------------------------------------------||]
D[||-------------------------------------------------------------------------------------------------||]x4
A[||-------------------------------------------------------------------------------------------------||]
E[||-------------------------------------------------------------------------------------------------||]
 [|                                                                                                   |]
 [|  Guitar 4 (Piano Riff)                                                                            |]
e[||-22-18-------22-18-------22-18----------------18-20-18-------20-18-------20-18-------------------||]
B[||-------22-20-------22-20-------22-20-18-20-22----------22-18-------22-18-------22-18-20-18-20-22-||]
G[||-------------------------------------------------------------------------------------------------||]
D[||-------------------------------------------------------------------------------------------------||]
A[||-------------------------------------------------------------------------------------------------||]
E[||-------------------------------------------------------------------------------------------------||]
 [|                                                                                                   |]
 [|  Guitar 5 (Orchestra)*                                                                            |]
e[||-------------------------------------------------------------------------------------------------||]
B[||-15----------------------10~~~~~~~~~~~~~~~~~~~~~~10~~~~~~~~~~~~~~~~~~~~~~8~~~~~~~~~~~~~~~~~~~~~~-||]
G[||-------------------------------------------------------------------------------------------------||]
D[||-------------------------------------------------------------------------5-----------------------||]
A[||-------------------------------------------------------------------------------------------------||]
E[||-------------------------------------------------------------------------------------------------||]
     *(Just like from 2:27-2:56): On the 3rd and 4th repeats, the orchestra track 
      has some notes go up higher than the reach of a guitar. Its still the same 
      notes, just up an octave or 2.




(5:02)
    Guitar 1
e||-3-----------------------1-----------------------3-----------------------3-----------------------||
B||-3-----------------------1-----------------------1-----------------------3-----------------------||
G||-3-----------------------2-----------------------0-----------------------0-----------------------||
D||-5-----------------------3-----------------------------------------------------------------------||
A||-------------------------------------------------------------------------------------------------||
E||-------------------------------------------------------------------------------------------------||
 |                                                                                                   |
 |  Guitar 2                                                                                         |
e||----------15---18----22------------15---17----22-----------15---18----22-----------15--20----22--||
B||-------15---------15-----------------------------------------------------------15---------15-----||
G||------------------------------14-----------14-----------17---------17----------------------------||
D||-------------------------------------------------------------------------------------------------||
A||-------------------------------------------------------------------------------------------------||
E||-------------------------------------------------------------------------------------------------||
 |                                                                                                   |
 |  Guitar 3                                                                                         |
e||-13b15~~~~~~~~~~~~~~~~~~~------------------------------------------------------------------------||
B||-------------------------------------------------11b13~~~~~~~~~~~~~~~~~~-8~~~~~~~~~~~~~~~~~~~~~~-||
G||-------------------------------------------------------------------------------------------------||
D||-------------------------------------------------------------------------------------------------||
A||-------------------------------------------------------------------------------------------------||
E||-------------------------------------------------------------------------------------------------||
 |                                                                                                   |
 |  Guitar 4                                                                                         |
e||-17-18-17-22-------------------------------------------------------------------------------------||
B||-------------20----------------------------------------------------------------------------------||
G||-------------------------------------------------------------------------------------------------||
D||-------------------------------------------------------------------------------------------------||
A||-------------------------------------------------------------------------------------------------||
E||-------------------------------------------------------------------------------------------------||
 |                                                                                                   |
 |  Guitar 5 (Orchestra)                                                                             |
e||-------------------------------------------------------------------------------------------------||
B||-18~~~~~~~~~~~~~~~~~~~~~-13~~~~~~~~~~~~~~~~~~~~~-15~~~~~~~~~~~~~~~~~~~~~~~~~~~~~~~~~~~~~~~~~~~~~-||
G||-------------------------------------------------------------------------------------------------||
D||-------------------------------------------------------------------------------------------------||
A||-------------------------------------------------------------------------------------------------||
E||-------------------------------------------------------------------------------------------------||
 |                                                                                                   |
 |  Guitar 6                                                                                         |
e||-------------------------------------------------------------------------------------------------||
B||-------15-------15----15-------15-------15----15-------15-------15----15-------15-------15----15-||
G||----------------------------14-------14----14-------15-------15----15-------15-------15----15----||
D||-13-17----13-17----17----15-------15-------------17-------17-------------17-------17-------------||
A||-------------------------------------------------------------------------------------------------||
E||-------------------------------------------------------------------------------------------------||
 |                                                                                                   |
 |  Guitar 7                                                                                         |
e||-22----------------------------------------------20----------------------------------------------||
B||-20----------------------------------------------18----------------------------------------------||
G||-19----------------------------------------------17----------------------------------------------||
D||-------------------------------------------------------------------------------------------------||
A||-------------------------------------------------------------------------------------------------||
E||-------------------------------------------------------------------------------------------------||
   ^Im sorry about the 7 layers here. So is Blackmill.




(5:09)
   Guitar 1
e||-3-----------------------1-----------------------3-----------------------3-----------------------||
B||-3-----------------------1-----------------------1-----------------------3-----------------------||
G||-3-----------------------2-----------------------0-----------------------0-----------------------||
D||-5-----------------------3-----------------------------------------------------------------------||
A||-------------------------------------------------------------------------------------------------||
E||-------------------------------------------------------------------------------------------------||
 |                                                                                                   |
 |  Guitar 2                                                                                         |
e||----------15---18----22------------15---17----22-----------15---18----22-----------15--20----22--||
B||-------15---------15-----------------------------------------------------------15---------15-----||
G||------------------------------14-----------14-----------17---------17----------------------------||
D||-------------------------------------------------------------------------------------------------||
A||-------------------------------------------------------------------------------------------------||
E||-------------------------------------------------------------------------------------------------||
 |                                                                                                   |
 |  Guitar 3  (fade out voume and distortion)                                                        |
e||-13b15~~~~~~~~~~~~~~~~~~~------------------------------------------------------------------------||
B||-------------------------------------------------11b13~~~~~~~~~~~~~~~~~~-8~~~~~~~~~~~~~~~~~~~~~~-||
G||-------------------------------------------------------------------------------------------------||
D||-------------------------------------------------------------------------------------------------||
A||-------------------------------------------------------------------------------------------------||
E||-------------------------------------------------------------------------------------------------||
 |                                                                                                   |
 |  Guitar 5                                                                                         |
e||-13~~~~~~~~~~~~~~~~~~~~~-18~~~~~~~~~~~~~~~~~~~~~-15~~~~~~~~~~~~~~~~~~~~~~~~~~~~~~~~~~~~~~~~~~~~~-||
B||-------------------------------------------------------------------------------------------------||
G||-------------------------------------------------------------------------------------------------||
D||-------------------------------------------------------------------------------------------------||
A||-------------------------------------------------------------------------------------------------||
E||-------------------------------------------------------------------------------------------------||
 |                                                                                                   |
 |  Guitar 6                                                                                         |
e||-------------------------------------------------------------------------------------------------||
B||-------15-------15----15-------15-------15----15-------15-------15----15-------15-------15----15-||
G||----------------------------14-------14----14-------15-------15----15-------15-------15----15----||
D||-13-17----13-17----17----15-------15-------------17-------17-------------17-------17-------------||
A||-------------------------------------------------------------------------------------------------||
E||-------------------------------------------------------------------------------------------------||
 |                                                                                                   |
 |  Guitar 7                                                                                         |
e||-18----------------------------------------------15----------------------------------------------||
B||-15----------------------------------------------15----------------------------------------------||
G||-15----------------------------------------------15----------------------------------------------||
D||-------------------------------------------------------------------------------------------------||
A||-------------------------------------------------------------------------------------------------||
E||-------------------------------------------------------------------------------------------------||




(5:17)
    Guitar 1
e||-3-----------------------1-----------------------3-----------------------3-----------------------||
B||-3-----------------------1-----------------------1-----------------------3-----------------------||
G||-3-----------------------2-----------------------0-----------------------0-----------------------||
D||-5-----------------------3-----------------------------------------------------------------------||
A||-------------------------------------------------------------------------------------------------||
E||-------------------------------------------------------------------------------------------------||
 |                                                                                                   |
 |  Guitar 2                                                                                         |
e||----------15---18----22------------15---17----22-----------15---18----22-----------15--20----22--||
B||-------15---------15-----------------------------------------------------------15---------15-----||
G||------------------------------14-----------14-----------17---------17----------------------------||
D||-------------------------------------------------------------------------------------------------||
A||-------------------------------------------------------------------------------------------------||
E||-------------------------------------------------------------------------------------------------||
 |                                                                                                   |
 |  Guitar 5                                                                                         |
e||-------------------------------------------------------------------------------------------------||
B||-13~~~~~~~~~~~~~~~~~~~~~~b15~~~~~~~~~~~~~~~~~~~~~~~~~~~~~~~~~~~~~~~~~~~~-18----------------------||
G||-------------------------------------------------------------------------------------------------||
D||-------------------------------------------------------------------------------------------------||
A||-------------------------------------------------------------------------------------------------||
E||-------------------------------------------------------------------------------------------------||
 |                                                                                                   |
 |  Guitar 6                                                                                         |
e||-------------------------------------------------------------------------------------------------||
B||-------15-------15----15-------15-------15----15-------15-------15----15-------15-------15----15-||
G||----------------------------14-------14----14-------15-------15----15-------15-------15----15----||
D||-13-17----13-17----17----15-------15-------------17-------17-------------17-------17-------------||
A||-------------------------------------------------------------------------------------------------||
E||-------------------------------------------------------------------------------------------------||
 |                                                                                                   |
 |  Guitar 7                                                                                         |
e||-22-----------------------------------------------20---------------------------------------------||
B||-20-----------------------------------------------18---------------------------------------------||
G||-19-----------------------------------------------17---------------------------------------------||
D||-------------------------------------------------------------------------------------------------||
A||-------------------------------------------------------------------------------------------------||
E||-------------------------------------------------------------------------------------------------||




(5:25)
    Guitar 1 (fade out)
e||-3-----------------------1-----------------------3-----------------------3-----------------------||
B||-3-----------------------1-----------------------1-----------------------3-----------------------||
G||-3-----------------------2-----------------------0-----------------------0-----------------------||
D||-5-----------------------3-----------------------------------------------------------------------||
A||-------------------------------------------------------------------------------------------------||
E||-------------------------------------------------------------------------------------------------||
 |                                                                                                   |
 |  Guitar 2                                                                                         |
e||----------15---18----22------------15---17----22-----------15---18----22-----------15--20----22--||
B||-------15---------15-----------------------------------------------------------15---------15-----||
G||------------------------------14-----------14-----------17---------17----------------------------||
D||-------------------------------------------------------------------------------------------------||
A||-------------------------------------------------------------------------------------------------||
E||-------------------------------------------------------------------------------------------------||
 |                                                                                                   |
 |  Guitar 5                                                                                         |
e||-------------------------------------------------------------------------------------------------||
B||-------------------------------------------------------------------------------------------------||
G||-15----------------------14----------------------12----------------------10----------------------||
D||-------------------------------------------------------------------------------------------------||
A||-------------------------------------------------------------------------------------------------||
E||-------------------------------------------------------------------------------------------------||
 |                                                                                                   |
 |  Guitar 6 (fade out)                                                                              |
e||-------------------------------------------------------------------------------------------------||
B||-------15-------15----15-------15-------15----15-------15-------15----15-------15-------15----15-||
G||----------------------------14-------14----14-------15-------15----15-------15-------15----15----||
D||-13-17----13-17----17----15-------15-------------17-------17-------------17-------17-------------||
A||-------------------------------------------------------------------------------------------------||
E||-------------------------------------------------------------------------------------------------||
 |                                                                                                   |
 |  Guitar 7                                                                                         |
e||-18----------------------------------------------15----------------------------------------------||
B||-15----------------------------------------------13----------------------------------------------||
G||-15----------------------------------------------14----------------------------------------------||
D||-------------------------------------------------------------------------------------------------||
A||-------------------------------------------------------------------------------------------------||
E||-------------------------------------------------------------------------------------------------||




(5:32)
    Guitar 7
e||-22------------20-----------18----------15--------22-20-18----17----15---------------------------||
B||-20------------18-----------15----------13--------20---------------------------------------------||
G||-19------------17-----------15----------14--------19-------19----19------------------------------||
D||-------------------------------------------------------------------------------------------------||
A||-------------------------------------------------------------------------------------------------||
E||------------------------------------------------------------------------3~-----------------------||
 |                                                                                                   |
 |  Guitar 5 (fade out)                                                                              |
e||-------------------------------------------------------------------------------------------------||
B||-------------------------------------------------------------------------------------------------||
G||-10b12~~~~~~~~~~~~~~~~~~~~~~~~~~~~~~~~-----------------------------------------------------------||
D||-------------------------------------------------------------------------------------------------||
A||-------------------------------------------------------------------------------------------------||
E||-------------------------------------------------------------------------------------------------||



A very cool song. Unfortunately listening to it so many times to get this tab as accurate as it is
has left me desensitized to its awesomeness. Feedback?


Tap to rate this tab
# A B C D E F G H I J K L M N O P Q R S T U V W X Y Z