Guitaretab - guitar tabs
Song name
# A B C D E F G H I J K L M N O P Q R S T U V W X Y Z

Blink 182 - Dancing With Myself tab

Standard Tuning

Intro/Verse
e|-----------------------|
B|-----------------------|
G|-6-6--6--6--5--6--8--6-|
D|-----------------------|
A|-----------------------|
E|-----------------------|

Chorus Guitar 1      * = palm mute

e|----------------------------------------------|
B|----------------------------------------------|
G|-5--5-5-5-5-5-5-------------------------------|
D|-5--5-5-5-5-5-5-3--3-3-3-3-3-3-7--7-7-7-7-7-7-|
A|-3--3-3-3-3-3-3-3--3-3-3-3-3-3-7--7-7-7-7-7-7-|
E|----------------1--1-1-1-1-1-1-5--5-5-5-5-5-5-|
   *              *              *
 
Chorus continued
[ Tab from: http://www.guitaretab.com/b/blink-182/120030.html ]
e|----------------|
B|----------------|
G|----------------|
D|-3--3-3-3-3-3-3-|
A|-3--3-3-3-3-3-3-|
E|-1--1-1-1-1-1-1-|
   *
Chorus Guitar 2 (enters after first palm muted note on each measure)
e|---------------------------|
B|---------------------------|
G|-11-11-11-11-10-10-10-10-9-|
D|-11-11-11-11-10-10-10-10-9-|
A|--9--9--9--9--8--8--8--8-7-|
E|---------------------------|

Solo
e|-----------------------------------|
B|-----------------------------------|
G|-5-5-5-5-7-7-7-7-9-9-12-12-12-12---|
D|-----------------------------------|
A|-----------------------------------|
E|-----------------------------------|
   * * * * * * * * * * 
Related for Dancing With Myself tab
×
Dancing With Myself