Song name
# A B C D E F G H I J K L M N O P Q R S T U V W X Y Z

Blink 182 - Dancing With Myself tab

-------------------------------------------------------------------------------
                             Dancing With Myself - blink-182
-------------------------------------------------------------------------------
Tabbed by: slarbiter
E-mail: fakelol131@yahoo.com

There arent any tabs that include the full song or even make sense that ive seen(no offense)
so i decided to tab out the whole song myself lol enjoy.

">" means the notes played more than once and the "." means the notes are palm muted.

Tuning: Standard

Intro:
e|-------------------|
B|-------------------|
G|----5>-4-5-7-5>----|
D|-------------------| Repeat until vocals come in or have a guitar 2 play it during the verse
A|-------------------| while guitar 1 palm mutes x355xxx throughout the intro.
E|-------------------|

Verse:
e|-----------------------------------------|
B|-----------------------------------------|
G|---5-5>----------------------------------|
D|---5-5>----3-3>----5-5>----3-3>----------|
A|---3-3>----3-3>----5-5>----3-3>----------|
E|-----------1-1>----3-3>----1-1>----------|
       .       .       .       .

Chorus: "Ill be dancing with myself"
e|-----------------------------------------|
B|-----------------------------------------|
G|---5-5>----------------------------------|
D|---5-5>----3-3>----5-5>----3-3>----------| yes the palm muting is reversed
A|---3-3>----3-3>----5-5>----3-3>----------|
E|-----------1-1>----3-3>----1-1>----------|
     .       .       .       .

Repeat the verse and chorus

Interlude to the solo: "Woah oh oh ohhh"
e|------------------|
B|------------------|
G|---5-5>-----------|
D|---5-5>----3-3>---| Play it 3 times and the last time replace
A|---3-3>----3-3>---| the 133xxx chord with 355xxx.
E|-----------1-1>---|
     .       .

Solo: This is the CORRECT way this it should sound
e|-------------------------|
B|---------------8888------|
G|-------55557777----------|
D|---5555------------------| Play it 7 times then end it with 8> on the B string
A|-------------------------|
E|-------------------------|
     ................


Repeat the verse and chorus then interlude once more then that should be it, comment and rate :D
Tap to rate this tab
# A B C D E F G H I J K L M N O P Q R S T U V W X Y Z