Song name
# A B C D E F G H I J K L M N O P Q R S T U V W X Y Z

Blink 182 - Stay Together For The Kids tab

e-------------------------------------------|--------------------|------------
B-------------------------------------------|--------------------|------------
G-------------------------------------------|----7----7----7----7|------------
D--0-7-0-4-0-0-7-0-4-0-0-4-0-5-0-2-4-5-4-2-0|----7----7----7----7|------------
A-5-5---5---4-4---4---2-2---2---0-0---------|5-5--5-5--5-5--5-5--|------------
E-------------------------------------------|--------------------|------------
         Repeat Intro                              Verse 
e------------------------|-----------------------|----------------------------
B------------------------|-----------------------|----------------------------
G------------------------|----6-----6-----6-----6|----9-----9-----9-----9-----
D-----7-----7-----7-----7|----7-----7-----7-----7|----7-----7-----7-----7-----
A-----7-----7-----7-----7|0-0---0-0---0-0---0-0--|0-0---0-0---0-0---0-0-------
E-7-7---7-7---7-7---7-7--|-----------------------|----------------------------
Chorus
e-----------------------------------------------------------------------------
B-----------------------------------------------------------------------------
G-----------------------------------------------------------------------------
D555555555444444444-----------------------------------------------------------
A555555555444444444-----------------------------------------------------------
E333333333222222222-0---------------------------------------------------------
 Repeat a couple times
Bridge
e-----------------------------------------------------------------------------
B-----------------------------------------------------------------------------
G2---7------9-------------------------------------------------------------------
D2---7------9-------------------------------------------------------------------
A0---5------7-------------------------------------------------------------------
E-----------------------------------------------------------------------------
    Play that a couple o times 
Order:
Intro
Verse
Chorus
Intro
Verse
Chorus
Bridge
Chorus

This is sounds perfect but if you have any corrections,which i doubt you will, e-mail me at Guitarmasta182@aol.com
Tap to rate this tab
# A B C D E F G H I J K L M N O P Q R S T U V W X Y Z