Song name
# A B C D E F G H I J K L M N O P Q R S T U V W X Y Z

Blink 182 - Stay Together For The Kids tab

-------------------------------------------------------------------------------
                    		blink-182
			stay together for the kids
		      (take off your pants and jacket)
-------------------------------------------------------------------------------
alrite here it is...im tired of all the wrong tabs here...so i decided to tab this myself.
THis is a good song...and this took a while to do so enjoy it. Open this up on 
notepad if u have windows. (plz rate this a five)

intro:
e|----------------|----------------|----------------|----------------|
b|----------------|----------------|----------------|----------------|
g|----------------|----------------|----------------|----------------|
d|--0---7---0-4-0-|--0---7---0-4-0-|--0---4---0-5-4-|--0---2-5-4-2-0-|
a|5---5---5-------|4---4---4-------|2---2---2-------|0---------------|
e|----------------|----------------|----------------|----------------|


e|----------------|----------------|----------------|----------------|
b|----------------|----------------|----------------|----------------|
g|----------------|----------------|----------------|----------------|
d|--0---7---0-4-0-|--0---7---0-4-0-|--0---4---0-5-4-|--0---2-5-4-2-0-|
a|5---5---5-------|4---4---4-------|2---2---2-------|0---------------|
e|----------------|----------------|----------------|----------------|

   Verse: (clean)
e|-------------------------------------------------|
b|-----3-----3-----3-----3-----3-----3-----3-----3-|
g|-----2-----2-----2-----2-----2-----2-----2-----2-|
d|-0-0---0-0---0-0---0-0---------------------------|
a|-------------------------4-4---4-4---4-4---4-4---|
e|-------------------------------------------------|
   its hard to wake up...
e|-----------------------------0-----0-------------|
b|-----3-----3-----3-----3-----3-----3-----2-----2-|
g|-----2-----2-----2-----2-----------------2-----2-|
d|-------------------------------------------------|
a|-2-2---2-2---2-2---2-2---0-0---0-0---0-0---0-0---|
e|-------------------------------------------------|

e|-------------------------------------------------|
b|-----3-----3-----3-----3-----3-----3-----3-----3-|
g|-----2-----2-----2-----2-----2-----2-----2-----2-|
d|-0-0---0-0---0-0---0-0---------------------------|
a|-------------------------4-4---4-4---4-4---4-4---|
e|-------------------------------------------------|

e|-----------------------------0-----0----------------|
b|-----3-----3-----3-----3-----3-----3----------------|
g|-----2-----2-----2-----2----------------------------|
d|----------------------------------------------------|
a|-2-2---2-2---2-2---2-2---0-0---0-0------------------|
e|--------------------------------(kick in distortion)|

chorus: (distorted)

e|----------------|----------------|----------------|----------------|
b|----------------|----------------|----------------|----------------|
g|----------------|----------------|----------------|----------------|
d|5-5-5-5-5-5-5-5-|5-5-5-5-5-5-5-5-|4-4-4-4-4-4-4-4-|4-4-4-4-4-4-4-4-|
a|5-5-5-5-5-5-5-5-|5-5-5-5-5-5-5-5-|4-4-4-4-4-4-4-4-|4-4-4-4-4-4-4-4-|
d|3-3-3-3-3-3-3-3-|3-3-3-3-3-3-3-3-|2-2-2-2-2-2-2-2-|2-2-2-2-2-2-2-2-|
                       so here's your holiday..............        hope u

e|----------------|----------------|----------------|----------------|
b|----------------|----------------|----------------|----------------|
g|----------------|----------------|----------------|----------------|
d|5-5-5-5-5-5-5-5-|5-5-5-5-5-5-5-5-|4-4-4-4-4-4-4-4-|4-4-4-4-4-4-4-4-|
a|5-5-5-5-5-5-5-5-|5-5-5-5-5-5-5-5-|4-4-4-4-4-4-4-4-|4-4-4-4-4-4-4-4-|
e|3-3-3-3-3-3-3-3-|3-3-3-3-3-3-3-3-|2-2-2-2-2-2-2-2-|2-2-2-2-2-2-2-2-|
  enjoy this time gave it all the way............................. it was

e|----------------|----------------|----------------|----------------|
b|----------------|----------------|----------------|----------------|
g|----------------|----------------|----------------|----------------|
d|5-5-5-5-5-5-5-5-|5-5-5-5-5-5-5-5-|4-4-4-4-4-4-4-4-|4-4-4-4-4-4-4-4-|
a|5-5-5-5-5-5-5-5-|5-5-5-5-5-5-5-5-|4-4-4-4-4-4-4-4-|4-4-4-4-4-4-4-4-|
e|3-3-3-3-3-3-3-3-|3-3-3-3-3-3-3-3-|2-2-2-2-2-2-2-2-|2-2-2-2-2-2-2-2-|
  mine so when ur dead and gone..............................     will u

e|----------------|----------------|----------------|----------------|
b|----------------|----------------|----------------|----------------|
g|----------------|----------------|----------------|----------------|
d|5-5-5-5-5-5-5-5-|5-5-5-5-5-5-5-5-|4-4-4-4-4-4-4-4-|4-4-4-4-4-4-4-4-|
a|5-5-5-5-5-5-5-5-|5-5-5-5-5-5-5-5-|4-4-4-4-4-4-4-4-|4-4-4-4-4-4-4-4-|
e|3-3-3-3-3-3-3-3-|3-3-3-3-3-3-3-3-|2-2-2-2-2-2-2-2-|2-2-2-2-2-2-2-2-|
  remember this time 20 years now lost.....................its not right
repeat intro:
e|----------------|----------------|----------------|----------------|
b|----------------|----------------|----------------|----------------|
g|----------------|----------------|----------------|----------------|
d|--0---7---0-4-0-|--0---7---0-4-0-|--0---4---0-5-4-|--0---2-5-4-2-0-|
a|5---5---5-------|4---4---4-------|2---2---2-------|0---------------|
e|----------------|----------------|----------------|----------------|


e|----------------|----------------|----------------|----------------|
b|----------------|----------------|----------------|----------------|
g|----------------|----------------|----------------|----------------|
d|--0---7---0-4-0-|--0---7---0-4-0-|--0---4---0-5-4-|--0---2-5-4-2-0-|
a|5---5---5-------|4---4---4-------|2---2---2-------|0---------------|
e|----------------|----------------|----------------|----------------|
  
Verse: (clean)
e|-------------------------------------------------|
b|-----3-----3-----3-----3-----3-----3-----3-----3-|
g|-----2-----2-----2-----2-----2-----2-----2-----2-|
d|-0-0---0-0---0-0---0-0---------------------------|
a|-------------------------4-4---4-4---4-4---4-4---|
e|-------------------------------------------------|
  the anger hurts my ears...
e|-----------------------------0-----0-------------|
b|-----3-----3-----3-----3-----3-----3-----2-----2-|
g|-----2-----2-----2-----2-----------------2-----2-|
d|-------------------------------------------------|
a|-2-2---2-2---2-2---2-2---0-0---0-0---0-0---0-0---|
e|-------------------------------------------------|

e|-------------------------------------------------|
b|-----3-----3-----3-----3-----3-----3-----3-----3-|
g|-----2-----2-----2-----2-----2-----2-----2-----2-|
d|-0-0---0-0---0-0---0-0---------------------------|
a|-------------------------4-4---4-4---4-4---4-4---|
e|-------------------------------------------------|

e|-----------------------------0-----0----------------|
b|-----3-----3-----3-----3-----3-----3----------------|
g|-----2-----2-----2-----2----------------------------|
d|----------------------------------------------------|
a|-2-2---2-2---2-2---2-2---0-0---0-0------------------|
e|--------------------------------(kick in distortion)|

chorus: (distorted)


e|----------------|----------------|----------------|----------------|
b|----------------|----------------|----------------|----------------|
g|----------------|----------------|----------------|----------------|
d|5-5-5-5-5-5-5-5-|5-5-5-5-5-5-5-5-|4-4-4-4-4-4-4-4-|4-4-4-4-4-4-4-4-|
a|5-5-5-5-5-5-5-5-|5-5-5-5-5-5-5-5-|4-4-4-4-4-4-4-4-|4-4-4-4-4-4-4-4-|
d|3-3-3-3-3-3-3-3-|3-3-3-3-3-3-3-3-|2-2-2-2-2-2-2-2-|2-2-2-2-2-2-2-2-|
                       so here's your holiday..............        hope u

e|----------------|----------------|----------------|----------------|
b|----------------|----------------|----------------|----------------|
g|----------------|----------------|----------------|----------------|
d|5-5-5-5-5-5-5-5-|5-5-5-5-5-5-5-5-|4-4-4-4-4-4-4-4-|4-4-4-4-4-4-4-4-|
a|5-5-5-5-5-5-5-5-|5-5-5-5-5-5-5-5-|4-4-4-4-4-4-4-4-|4-4-4-4-4-4-4-4-|
e|3-3-3-3-3-3-3-3-|3-3-3-3-3-3-3-3-|2-2-2-2-2-2-2-2-|2-2-2-2-2-2-2-2-|
  enjoy this time gave it all the way............................. it was

e|----------------|----------------|----------------|----------------|
b|----------------|----------------|----------------|----------------|
g|----------------|----------------|----------------|----------------|
d|5-5-5-5-5-5-5-5-|5-5-5-5-5-5-5-5-|4-4-4-4-4-4-4-4-|4-4-4-4-4-4-4-4-|
a|5-5-5-5-5-5-5-5-|5-5-5-5-5-5-5-5-|4-4-4-4-4-4-4-4-|4-4-4-4-4-4-4-4-|
e|3-3-3-3-3-3-3-3-|3-3-3-3-3-3-3-3-|2-2-2-2-2-2-2-2-|2-2-2-2-2-2-2-2-|
  mine so when ur dead and gone..............................     will u

e|----------------|----------------|----------------|----------------|
b|----------------|----------------|----------------|----------------|
g|----------------|----------------|----------------|----------------|
d|5-5-5-5-5-5-5-5-|5-5-5-5-5-5-5-5-|4-4-4-4-4-4-4-4-|4-4-4-4-4-4-4-4-|
a|5-5-5-5-5-5-5-5-|5-5-5-5-5-5-5-5-|4-4-4-4-4-4-4-4-|4-4-4-4-4-4-4-4-|
e|3-3-3-3-3-3-3-3-|3-3-3-3-3-3-3-3-|2-2-2-2-2-2-2-2-|2-2-2-2-2-2-2-2-|
  remember this time 20 years now lost.....................its not right

bridge: (clean) 
|---------------------------------------| 
|-7-------------------------------------| 
|-7-------7-------9---------------------|  (3x) 
|-7-------7-------9---------------------| (tom delonge messes around with the tone during 
|---------5-------7---------------------| the bridge u try it urself..)
|-------------------(kick in distortion)|

chorus: (distorted)


e|----------------|----------------------------------|----------------|
b|----------------|----------------------------------|----------------|
g|----------------|----------------------------------|----------------|
d|5-5-5-5-5-5-5-5-|5-5-5-5-5-5-5-5---4-4-4-4-4-4-4-4-|4-4-4-4-4-4-4-4-|
a|5-5-5-5-5-5-5-5-|5-5-5-5-5-5-5-5---4-4-4-4-4-4-4-4-|4-4-4-4-4-4-4-4-|
d|3-3-3-3-3-3-3-3-|3-3-3-3-3-3-3-3-0-2-2-2-2-2-2-2-2-|2-2-2-2-2-2-2-2-|
                   

e|----------------|----------------------------------|----------------|
b|----------------|----------------------------------|----------------|
g|----------------|----------------------------------|----------------|
d|5-5-5-5-5-5-5-5-|5-5-5-5-5-5-5-5---4-4-4-4-4-4-4-4-|4-4-4-4-4-4-4-4-|
a|5-5-5-5-5-5-5-5-|5-5-5-5-5-5-5-5---4-4-4-4-4-4-4-4-|4-4-4-4-4-4-4-4-|
d|3-3-3-3-3-3-3-3-|3-3-3-3-3-3-3-3-0-2-2-2-2-2-2-2-2-|2-2-2-2-2-2-2-2-|

e|----------------|----------------|----------------|----------------|
b|----------------|----------------|----------------|----------------|
g|----------------|----------------|----------------|----------------|
d|5-5-5-5-5-5-5-5-|5-5-5-5-5-5-5-5-|4-4-4-4-4-4-4-4-|4-4-4-4-4-4-4-4-|
a|5-5-5-5-5-5-5-5-|5-5-5-5-5-5-5-5-|4-4-4-4-4-4-4-4-|4-4-4-4-4-4-4-4-|
d|3-3-3-3-3-3-3-3-|3-3-3-3-3-3-3-3-|2-2-2-2-2-2-2-2-|2-2-2-2-2-2-2-2-|
                       so here's your holiday..............        hope u

e|----------------|----------------|----------------|----------------|
b|----------------|----------------|----------------|----------------|
g|----------------|----------------|----------------|----------------|
d|5-5-5-5-5-5-5-5-|5-5-5-5-5-5-5-5-|4-4-4-4-4-4-4-4-|4-4-4-4-4-4-4-4-|
a|5-5-5-5-5-5-5-5-|5-5-5-5-5-5-5-5-|4-4-4-4-4-4-4-4-|4-4-4-4-4-4-4-4-|
e|3-3-3-3-3-3-3-3-|3-3-3-3-3-3-3-3-|2-2-2-2-2-2-2-2-|2-2-2-2-2-2-2-2-|
  enjoy this time gave it all the way............................. it was

e|----------------|----------------|----------------|----------------|
b|----------------|----------------|----------------|----------------|
g|----------------|----------------|----------------|----------------|
d|5-5-5-5-5-5-5-5-|5-5-5-5-5-5-5-5-|4-4-4-4-4-4-4-4-|4-4-4-4-4-4-4-4-|
a|5-5-5-5-5-5-5-5-|5-5-5-5-5-5-5-5-|4-4-4-4-4-4-4-4-|4-4-4-4-4-4-4-4-|
e|3-3-3-3-3-3-3-3-|3-3-3-3-3-3-3-3-|2-2-2-2-2-2-2-2-|2-2-2-2-2-2-2-2-|
  mine so when ur dead and gone..............................     will u

e|----------------|----------------|----------------|----------------|
b|----------------|----------------|----------------|----------------|
g|----------------|----------------|----------------|----------------|
d|5-5-5-5-5-5-5-5-|5-5-5-5-5-5-5-5-|4-4-4-4-4-4-4-4-|4-4-4-4-4-4-4-4-|
a|5-5-5-5-5-5-5-5-|5-5-5-5-5-5-5-5-|4-4-4-4-4-4-4-4-|4-4-4-4-4-4-4-4-|
e|3-3-3-3-3-3-3-3-|3-3-3-3-3-3-3-3-|2-2-2-2-2-2-2-2-|2-2-2-2-2-2-2-2-|
  remember this time 20 years now lost.....................its not right

e|----------------|----------------|----------------|----------------|
b|----------------|----------------|----------------|----------------|
g|----------------|----------------|----------------|----------------|
d|5-5-5-5-5-5-5-5-|5-5-5-5-5-5-5-5-|4-4-4-4-4-4-4-4-|4-4-4-4-4-4-4-4-|
a|5-5-5-5-5-5-5-5-|5-5-5-5-5-5-5-5-|4-4-4-4-4-4-4-4-|4-4-4-4-4-4-4-4-|
e|3-3-3-3-3-3-3-3-|3-3-3-3-3-3-3-3-|2-2-2-2-2-2-2-2-|2-2-2-2-2-2-2-2-|
                      its not right

e|----------------|----------------|----------------|----------------|
b|----------------|----------------|----------------|----------------|
g|----------------|----------------|----------------|----------------|
d|5-5-5-5-5-5-5-5-|5-5-5-5-5-5-5-5-|4-4-4-4-4-4-4-4-|4-4-4-4-4-4-4-4-|
a|5-5-5-5-5-5-5-5-|5-5-5-5-5-5-5-5-|4-4-4-4-4-4-4-4-|4-4-4-4-4-4-4-4-|
e|3-3-3-3-3-3-3-3-|3-3-3-3-3-3-3-3-|2-2-2-2-2-2-2-2-|2-2-2-2-2-2-2-2-|
        its not right...................................its not right
end on
e|----------------|
b|----------------|
g|----------------| 
d|--5-------------|  (hold)
a|--5-------------|
e|--3-------------|
Tap to rate this tab
# A B C D E F G H I J K L M N O P Q R S T U V W X Y Z