Song name
# A B C D E F G H I J K L M N O P Q R S T U V W X Y Z

Blink 182 - First Date tab

Song: First Date
Artist: Blink 182
Album: Take Off Your Pants And Jacket
Tabber: Andres Lazo
E-mail: andrulazo@hotmail.com

This is my 2nd tab for this song, corrected, cause my other tab got screwed up. 100% perfect.

Intro
E|-0------------------------------------------------------|
B|---1---1-----3-1---1----3-1---1-----3-1---0-------------| X2
G|-----0---0-------0---0------0---0-------0---------------|
D|--------------------------------------------------------|
A|--------------------------------------------------------|
E|--------------------------------------------------------|

Riff 1 (For better sound play C5 like Tom does live)
E|-----------------------------------------------|
B|-----------------------------------------------|
G|---5--5----5--5----5--5----5--5----------------|
D|-5-------5-------5-------5---------------------|  X2
A|-----------------------------------------------|
E|-----------------------------------------------|

PreChorus
E|---------------------------------------------------------------|
B|---------------------------------------------------------------|
G|-555--555---222222---------------------------------------------| X2
D|-555--555---222222----33-55------------------------------------|
A|-333--222---000000----33-55------------------------------------|
E|----------------------11-33------------------------------------|

CHORUS
E|-------------------------------------------------------------------|
B|-------------------------------------------------------------------|
G|-5555----5555---2222-----------------------------------------------|
D|-5555----5555---2222------33-55------------------------------------| X2
A|-3333----2222---0000------33-55------------------------------------|
E|--------------------------11-33------------------------------------|

-------------
| Intro     |
| Riff 1    |
| Prechorus |
| Chorus    |
-------------

Interlude
E|----------------------------------------------------------|
B|----------------------------------------------------------|
G|--5555555-------------------------------------------------|
D|--5555555--2222222--3333333--5555555----------------------| X2
A|--3333333--2222222--3333333--5555555----------------------|
E|-----------0000000--1111111--3333333----------------------|


E|-----------------------------------------|
B|-----------------------------------------|
G|-5555555-9999-555-10-10-10-10-555-777777-|
D|-5555555-xxxx-xxx-xx-xx-xx-xx-xxx-xxxxxx-|  X4
A|-3333333-7777-333--8--8--8--8-333-555555-|
E|-----------------------------------------|

-------------
| PreChorus |
| Chorus    |
| Intro     |
-------------

End
Tap to rate this tab
# A B C D E F G H I J K L M N O P Q R S T U V W X Y Z