Song name
# A B C D E F G H I J K L M N O P Q R S T U V W X Y Z

Blink 182 - Disaster tab

-----------------------------------------------------------------------------
                             DISASTER - BLINK 182 
-----------------------------------------------------------------------------
First Tab so be gentle.
Don't know if I'm right comment if I need corrections 

Tuning: Standard

INTRO- Bass and synth at the beginning.

Guitar begins(0:39): (They're 10's and 12's)
e|--------------------------------|
B|--------------------------------|
G|-12--1212--12--12--1212---------|
D|-10--1010--10--10--1010---------|
A|-10--1010--10--10--1010---------|
E|-x---x-x---x---x---x-x----------|

e|--------------------------------|
B|--------------------------------|
G|-12--1212--10--10--109----------|
D|-10--1010--10--10--1010---------|
A|-10--1010--10--10--1010---------|
E|-x---x-x---x---x---x-x----------|


Verse:
e|----------------------|----------------------|
B|----------------------|----------------------|
G|-7-7-7--5-5-5--0-0-0--|-7-7-7--5-5-5--0-0-0--| (Repeat Whole verse)
D|----------------------|----------------------|
A|----------------------|----------------------|
E|----------------------|----------------------|

Chorus 1:
e|----------------------|----------------------|
B|----------------------|----------------------|
G|--5-------------------|----------------------| 
D|--5-------------------|--5-------------------|
A|--3-------------------|--5-------------------|
E|--x-------------------|--3-------------------|

e|----------------------|----------------------|
B|----------------------|----------------------|
G|--109------109--------|----------------------| 
D|--109-10---109-10-----|----------------------|
A|--8-7-10---8-7-10-----|----------------------|
E|------8--------9------|----------------------|

Chorus 2/Outro:
e|----------------------|----------------------|
B|----------------------|----------------------|
G|--5-------------------|----------------------| 
D|--5-------------------|--5-------------------|
A|--3-------------------|--5-------------------|
E|--x-------------------|--3-------------------|

e|----------------------|----------------------|
B|----------------------|----------------------|
G|----------------------|----------------------| 
D|--3-------------------|--5-------------------|
A|--3-------------------|--5-------------------|
E|--1-------------------|--3-------------------|

e|----------------------|----------------------|
B|----------------------|----------------------|
G|--2-------------------|--109------109--------| 
D|--2-------------------|--109-10---109-10-----|
A|--0-------------------|--8-7-10---8-7-10-----|
E|--x-------------------|------8--------8------|

Intro
Verse
Chorus 1
Verse
Chorus 2
Bridge
Chorus 2/Outro
Tap to rate this tab
 
# A B C D E F G H I J K L M N O P Q R S T U V W X Y Z