Song name
# A B C D E F G H I J K L M N O P Q R S T U V W X Y Z

Blood Red Shoes - Cold tab

This is the tab for Blood Red Shoe´s new single "Cold" which is off their new 
album "In Time to Voices" (out 26 March 2012)

Here´s a link to a live performance from BBC Radio 1 (it´s helpful and it firetruckin rocks ;) )

http://www.youtube.com/watch?v=S72kp1dKZaw

Standard Tuning
EADgbe

Intro/Verse (played with an ?octavepedal?)
|----------------------------------------------------|
|----------------------------------------------------|
|----------------------------------------------------|
|----------------------------------------------------|x2
|--------------------------2----2----------2------2--|
|-15/---7-10/-3----3--6-5--0----0---7-5-7--0------0--|

Chorus part A
|----------------------------------------------------|
|----------------------------------------------------|
|------2b-------2b-----------------------------------|------------
|--------------------------5h7------5h7--------------|           |  
|----------------------------------------------------|           |
|-3333-----3333-------0000-----0000------------------|           |
                                                                 |x2
|----------------------------------------------------|           |
|----------------------------------------------------|           |
|------2b------2b------------------------------------|           |
|------------------------7h9--------7h9--------------|------------
|----------------------------------------------------|
|-3333----3333-------0000------0000------------------|

Chorus part B (listen to the song to get the chord change)
|----------------------------------------------------|
|----------------------------------------------------|
|----------------------------------------------------|
|-17----15--14----9--9----7---5----------------------|x2
|-17----15--14----9--9----7---5----------------------|
|-15----13--12----7--8----5---3----------------------|

Verse (played with an ?octavepedal?)
|----------------------------------------------------|
|----------------------------------------------------|
|----------------------------------------------------|
|----------------------------------------------------|x3
|--------------------------2----2----------2------2--|
|-15/---7-10/-3----3--6-5--0----0---7-5-7--0------0--|


Chorus part A
|----------------------------------------------------|
|----------------------------------------------------|
|------2b-------2b-----------------------------------|
|--------------------------5h7------5h7--------------|           
|----------------------------------------------------|           
|-3333-----3333-------0000-----0000------------------|           
                                                                 
|----------------------------------------------------|           
|----------------------------------------------------|           
|------2b------2b------------------------------------|           
|------------------------7h9--------7h9--------------|
|----------------------------------------------------|
|-3333----3333-------0000------0000------------------|

Lick thingy
|----------------------------------------------------|
|----------------------------------------------------|
|--12-12-12-12-12b12b12b12b--------------------------|
|--12-12-12-12-12b12b12b12b--------------------------|
|----------------------------------------------------|
|----------------------------------------------------|

Chorus part B (listen to the song to get the chord change)
|----------------------------------------------------|
|----------------------------------------------------|
|----------------------------------------------------|
|-17----15--14----9--9----7---5----------------------|x2
|-17----15--14----9--9----7---5----------------------|
|-15----13--12----7--8----5---3----------------------|

Break (with delay)
|----------------------------------------------------|
|----------------------------------------------------|
|----------------------------------------------------|
|----------------------------------------------------|
|----------------------------------------------------|x2
|-3-3-3-3/-15-15-15-15--3-3-3-3-7-7-2-2--------------|

Chorus part A
|----------------------------------------------------|
|----------------------------------------------------|
|------2b-------2b-----------------------------------|------------
|--------------------------5h7------5h7--------------|           |  
|----------------------------------------------------|           |
|-3333-----3333-------0000-----0000------------------|           |
                                                                 |x2
|----------------------------------------------------|           |
|----------------------------------------------------|           |
|------2b------2b------------------------------------|           |
|------------------------7h9--------7h9--------------|------------
|----------------------------------------------------|
|-3333----3333-------0000------0000------------------|

Outro (listen to the song to get the chord change)
|----------------------------------------------------|
|----------------------------------------------------|
|----------------------------------------------------|
|-17----15--14----9--9----7---5----------------------|
|-17----15--14----9--9----7---5----------------------|
|-15----13--12----7--8----5---3----------------------|


There it is! A kick ass song from a kick ass band!
Tap to rate this tab
 
# A B C D E F G H I J K L M N O P Q R S T U V W X Y Z