Song name
# A B C D E F G H I J K L M N O P Q R S T U V W X Y Z

Bombay Bicycle Club - My God tab

Disclaimer: was tabbed by 
http://www.geetab.co.uk/guitar-tab.php#My%20God%20-%20Bombay%20Bicycle%20Club- 
Jane is what i believe her name is. She tabbed it, I found it...

Standard tuning, capo 4th fret
As Bombay Bicycle Club play on the album Flaws 2010

Guitar 1 (Jack Steadman)
Pick near the bridge at the beginning for the same tone (fast picking)
Guitar 2 (Jamie MacColl)

If youíre finding trouble with how the tab goes listen to the track, especially to the 
bass lines on the guitar.

Guitar 1

Intro
|------------------------------------------------|
|--0--0--0--0--0--0--0--0--0--0--0--0--0--0--0--0|
|-0--0--0--0--0--0--0--0--0--0--0--0--0--0--0--0-|
|---2-----2-----2-----2-----2-----2-----2-----2--|
|3-----------3-----------2-----------2-----------|
|------0-----------0-----------0-----------0-----|

|------------------------------------------------|
|--0--0--0--0--0--0--0--0--0--0--0--0--0--0--0--0|
|-0--0--0--0--0--0--0--0--0--0--0--0--0--0--0--0-|
|---2-----2-----2-----2-----2-----2-----2-----2--|
|3-----------3-----------2-----------2-----------|
|------3-----------3-----------0-----------0-----|

Verse One
All the eyes are downwards...
|------------------------------------------------|
|--0--0--0--0--0--0--0--0--0--0--0--0--0--0--0--0|
|-0--0--0--0--0--0--0--0--0--0--0--0--0--0--0--0-|
|---2-----2-----2-----2-----2-----2-----2-----2--|
|3-----------3-----------2-----------2-----------|
|------0-----------0-----------0-----------0-----|

Fumbled words are spent...
|------------------------------------------------|
|--0--0--0--0--0--0--0--0--0--0--0--0--0--0--0--0|
|-0--0--0--0--0--0--0--0--0--0--0--0--0--0--0--0-|
|---2-----2-----2-----2-----2-----2-----2-----2--|
|3-----------3-----------2-----------2-----------|
|------3-----------3-----------0-----------0-----|

Repeat

Chorus
No point louder...
|||| || || || || || || ||
|---3-----3-----3-----3-----0-----0-----0-----0----|
|-----2-----2-----2-----2-----3-----3-----3-----3--|
|--2-----2-----2-----2-----0-----0-----0-----0-----|
|-0-0-----0-----0-----0-----2-----2-----2-----2----|
|0-----------0-----------3-----------3-----------3-|
|------2-----------2-----------3-----------3-------|

Itís out of my power...
|-0-----0-----0-----0-----0-----0-----0-----0--|
|---0-----0-----0-----0-----0-----0-----0-----0|
|0-----0-----0-----0-----0-----0-----0-----0---|
|-2-----2-----2-----2-----2-----2-----2-----2--|
|----------3-----------2-----------2-----------|
|----3-----------3-----------0-----------0-----|

Repeat

My God...
|------------------------------------------------|
|--0--0--0--0--0--0--0--0--0--0--0--0--0--0--0--0|
|-2--2--2--2--2--2--2--2--2--2--2--2--2--2--2--2-|
|---0-----0-----0-----0-----0-----0-----0-----0--|
|------3-----------3-----------3-----------3-----|
|1-----------1-----------1-----------1-----------|

Repeat for next verse and chorus except for ĎMy God...í and continue onto Outro:

Outro
My God...
|------------------------------------------------|
|--0--0--0--0--0--0--0--0--0--0--0--0--0--0--0--0|
|-2--2--2--2--2--2--2--2--0--0--0--0--0--0--0--0-|
|---0-----0-----0-----0-----2-----2-----2-----2--|
|------3-----------3-----3-----------3-----------|
|1-----------1-----------------3-----------3-----|

|------------------------------------------------|
|--0--0--0--0--0--0--0--0--0--0--0--0--0--0--0--0|
|-2--2--2--2--2--2--2--2--0--0--0--0--0--0--0--0-|
|---0-----0-----0-----0-----2-----2-----2-----2--|
|------3-----------3-----3-----------3-----------|
|1-----------1-----------------3-----------3-----|

|------------------------------------------------|
|--0--0--0--0--0--0--0--0--0--0--0--0--0--0--0--0|
|-2--2--2--2--2--2--2--2--0--0--0--0--0--0--0--0-|
|---0-----0-----0-----0-----2-----2-----2-----2--|
|------3-----------3-----3-----------3-----------|
|1-----------1-----------------3-----------3-----|

|------------------------------------------------|
|--0--0--0--0--0--0--0--0--0--0--0--0--0--0--0--0|
|-2--2--2--2--2--2--2--2--2--2--2--2--2--2--2--2-|
|---0-----0-----0-----0-----0-----0-----0-----0--|
|------3-----------3-----------3-----------3-----|
|1-----------1-----------1-----------1-----------|

|------------------------------------------------|
|--0--0--0--0--0--0--0--0--0--0--0--0--0--0--0--0|
|-2--2--2--2--2--2--2--2--2--2--2--2--2--2--2--2-|
|---0-----0-----0-----0-----0-----0-----0-----0--|
|------3-----------3-----------3-----------3-----|
|1-----------1-----------1-----------1-----------|
... until fade

Guitar 2 (Chorus and Outro only)

Chorus
No point louder...
|---9-----9-----9-----9-----7-----7-----7-----7--|
|---11----11----11----11----9-----9-----9-----9--|
|11----11----11----11----9-----9-----9-----9-----|
|------------------------------------------------|
|------------------------------------------------|
|------------------------------------------------|

Itís out of my power...
|---11----11----11----11----11----11----11----11-|
|---12----12----12----12----12----12----12----12-|
|13----13----13----13----------------------------|
|------------------------13----13----13----13----|
|------------------------------------------------|
|------------------------------------------------|

Repeat

My God...
|--4---4---4---4---4---4---4---4-|
|--5---5---5---5---5---5---5---5-|
|6---6---6---6---6---6---6---6---|
|--------------------------------|
|--------------------------------|
|--------------------------------|

Outro
|--4---4---4---4---4---4---4---4----11----11----11---11-|
|--5---5---5---5---5---5---5---5----12----12----12---12-|
|6---6---6---6---6---6---6---6---13----13----13----13---|
|-------------------------------------------------------|
|-------------------------------------------------------|
|-------------------------------------------------------|
Repeat x 4

|--4---4---4---4---4---4---4---4---4---4---4---4-|
|--5---5---5---5---5---5---5---5---5---5---5---5-|
|6---6---6---6---6---6---6---6---6---6---6---6---|
|------------------------------------------------|
|------------------------------------------------|
|------------------------------------------------|
... until fade
Tap to rate this tab
 
# A B C D E F G H I J K L M N O P Q R S T U V W X Y Z