Song name
# A B C D E F G H I J K L M N O P Q R S T U V W X Y Z

Bombay Bicycle Club - Carry Me tab

Main Riff

E||--------------------------------------------||
B||--------------------------------------------||
G||--------------------------------------------||
D||--------------------------------------------||
A||0-2-2-0-2-2-0-5-4--2--0-2-2-0-2-2-0---------||
E||------------------------------------4-2--0--||



Verse

E||--------------------||
B||--------------------|| All except the last time through where it plays a 2 on the A string
G||--------------------|| rather than on that last 2 on the D string
D||4----2---------2----||
A||----------0---------|| NB:- this also gets played in the build up to the final chorus, doesn't 
E||--------------------||      seem to be there in the second verse but there's something similar
                        on a synth so bleh.


Post-Verse

All tremolo picking

E||--------------------------------|     |-----------------------------||
B||7------14-------7-------2-------|     |7-------14-------7-------12--||Or something like that.
G||7------14-------7-------2-------| (x3)|7-------14-------7-------13--||First bit the bass is playing 
D||--------------------------------|     |-----------------------------||D - F# - D - A and then the 
A||--------------------------------|     |-----------------------------||final bit is D - F# - A
E||--------------------------------|     |-----------------------------||




Pre-Chorus/Chorus, the bit with just the little tremolo chords, this song doesn't 
have very well defined sections

E||------------------------------------------------------------------------||
B||12-------10-------14-------16-------14-------10-------12----------------||
G||13-------11-------14-------16-------14-------11-------13----------------||
D||------------------------------------------------------------------------||
A||------------------------------------------------------------------------||
E||------------------------------------------------------------------------||



Chorus


E||------------------------------------------------------------||
B||7-------14-------12-------14-------7-------12---------------||
G||7-------14-------13-------14-------7-------13---------------||
D||------------------------------------------------------------||
A||------------------------------------------------------------||
E||------------------------------------------------------------||



There are some other bits and pieces in there so feel free to comment.
Tap to rate this tab
# A B C D E F G H I J K L M N O P Q R S T U V W X Y Z