Song name
# A B C D E F G H I J K L M N O P Q R S T U V W X Y Z

Bombay Bicycle Club - Feel tab

(/) Slide Up  (\) Slide Down  (h) Hammer On  (p) Pull Off  (b) Bend (r) Release (v) Vibrato

Bombay Bicycle Club - Feel
From So Long, See You Tomorrow

Main riff:

E|-------------------------------------------------||
B|--11--12--14--12------12p11---------------9------||
G|------------------13--------13-11--10h11---------||
D|---------------------------------------------11--||
A|-------------------------------------------------||
E|-------------------------------------------------||

Chorus 1:

E|----------------------------------||
B|----------------------------------||
G|--11--11--13--13--11--11--13--13--||x 5
D|----------------------------------||
A|----------------------------------||
E|----------------------------------||

E|----------------------------------||
B|----------------------------------||
G|--11--11--10--10------------------||
D|------------------13--13--11--11--||
A|----------------------------------||
E|----------------------------------||

Verse 2 (1:54):

E|------------------------------------------||
B|------------------------------------------||
G|--11--11----------11--11--11--------------||
D|----------13--11--------------13--13--11--||
A|------------------------------------------||
E|------------------------------------------||


Chorus 2:

E|------------------------------------------------------------------||
B|------------------------------------------------------------------||
G|--11--11--13--13--11--11--13--13--11--11--13--13--11--11--10--10--|| x2
D|------------------------------------------------------------------||
A|------------------------------------------------------------------||
E|------------------------------------------------------------------||

Final bar:

E|----------------------------------||
B|----------------------------------||
G|--11--11--10--10------------------||
D|------------------13--13--11--11--||
A|----------------------------------||
E|----------------------------------||

Solo (2 Guitars, some kind of harmony):

E|--------------------------------------------------------------------------|
B|----------11h12p11--12h14p12--11h12p11--12h14p12--11h12p11--12h14p12--11--|
G|--11--13------------------------------------------------------------------|
D|--------------------------------------------------------------------------|
A|--------------------------------------------------------------------------|
E|--------------------------------------------------------------------------|


E|-----------------------------------------------------------------------------||
B|-----------------------------------------------------------------------------||
G|----------13h15p13--15h16p15--13h15p13--15h16p15--13h15p13-------------------|| x2
D|--15--16----------------------------------------------------15h16p15h16------||
A|-------------------------------------------------------------------------18--||
E|-----------------------------------------------------------------------------||

Then:

E|-----------------------------------------------------------------------------------||
B|-----------------------------------------------------------------------------------||
G|-------------13/15--15--13----------------------------13/15--15----------5--3------||
D|--13/15--13-----------------15--15/16--15--16/18--15-------------15--16------------||
A|-----------------------------------------------------------------------------------||
E|-------------------------------------------------------------------------------15--||

Final Chorus:

E|----------------------------------||
B|----------------------------------||
G|--11--11--13--13--11--11--13--13--|| x 4
D|----------------------------------||
A|----------------------------------||
E|----------------------------------||

Outro:
E|--------------------------------------------
B|--12--12--12--12--12----12--12--12--12--12--
G|--13--13--13--13--13----13--13--13--13--13-- x2
D|-------------------------------------------- 
A|--------------------------------------------
E|--------------------------------------------

finally:

E|----------------------------------------------------------------------------------------||
B|--12--12--11--11--11----11--11--11--11--11----11--11--11--11--11----11--11--11--11--11--||
G|--13--13--11--11--11----11--11--11--11--11----11--11--11--11--11----11--11--11--11--11--||
D|----------------------------------------------------------------------------------------||
A|----------------------------------------------------------------------------------------||
E|----------------------------------------------------------------------------------------||
Tap to rate this tab
# A B C D E F G H I J K L M N O P Q R S T U V W X Y Z