Song name
# A B C D E F G H I J K L M N O P Q R S T U V W X Y Z

Born Of Osiris - Bow Down tab

#----------------------------------PLEASE NOTE---------------------------------#
#This file is the author's own work and represents their interpretation of the #
#song. You may only use this file for private study, scholarship, or research. #
#------------------------------------------------------------------------------#

BOW DOWN
As recorded by Born Of Osiris
(From the 2007 Album THE NEW REIGN)

Transcribed by jonathanonfire (Jonathan Rose)
	

Words and Music by Born Of Osiris
Arranged by Born Of Osiris

Gtr I (C G C F A D) - 'Gtr I (Left Channel)'
Gtr II (C G C F A D) - 'Gtr II (Right Channel)'
Gtr III (C G C F A D) - 'Keys (Choir)'

 "Fucking bow "You were the price of.."
  Progressive Deathcore Q=142
  N.C.         F5E5EbD5F#5 F5  E5EbF5E5Eb5
 4/4
  Gtr I
               PM-------------------------
  W            S S E E T T T T E E S S E
|----------||----------------------------|
|----------||o---------------------------|
|----------||----------------------------|
|----------||----------------------------|
|----------||o-3-2-1-0-4-4-3-3-2-1-3-2-1-|
|----------||--3-2-1-0-4-4-3-3-2-1-3-2-1-|
|
| Gtr II
|              PM-------------------------
| W            S S E E T T T T E E S S E
|----------||----------------------------|
|----------||o---------------------------|
|----------||----------------------------|
|----------||----------------------------|
|----------||o-3-2-1-0-4-4-3-3-2-1-3-2-1-|
|----------||--3-2-1-0-4-4-3-3-2-1-3-2-1-|


  D5F#F5  E5  EbF5  E5  EbD5N.C.
 -------------------------|
  E S S S S S S T T T T E E   S      +S
|-----------------------------------------||
|----------------------------------------o||
|---------------------------[10]b11-(10)--||
|-----------------------------------------||
|-0-4-3-3-2-2-1-3-3-2-2-1-0--------------o||
|-0-4-3-3-2-2-1-3-3-2-2-1-0---------------||
|
|-------------------------|
| E S S S S S S T T T T E E   S      +S
|-----------------------------------------||
|----------------------------------------o||
|-----------------------------------------||
|----------------------------[3]b4---(3)--||
|-0-4-3-3-2-2-1-3-3-2-2-1-0--------------o||
|-0-4-3-3-2-2-1-3-3-2-2-1-0---------------||


  D5
  PM-----------------------------------
  S S S S S S T T T T S S S S S S S S
|-------------------------------------|
|-------------------------------------|
|-------------------------------------|
|-------------------------------------|
|-0-0-0---0---0-0-0-0-0---0---0-0-0---|
|-0-0-0---0---0-0-0-0-0---0---0-0-0---|
|
| PM-----------------------------------
| S S S S S S T T T T S S S S S S S S
|-------------------------------------|
|-------------------------------------|
|-------------------------------------|
|-------------------------------------|
|-0-0-0---0---0-0-0-0-0---0---0-0-0---|
|-0-0-0---0---0-0-0-0-0---0---0-0-0---|


                                  N.C.
 -------------------------------|
  S S S S S S S S T T T T S S S S   S      +S
|----------------------------------------------|
|----------------------------------------------|
|---------------------------------[10]b11-(10)-|
|----------------------------------------------|
|-0---0-0-0-0-0-0-0-0-0-0-0---0----------------|
|-0---0-0-0-0-0-0-0-0-0-0-0---0----------------|
|
|-------------------------------|
| S S S S S S S S T T T T S S S S   S      +S
|----------------------------------------------|
|----------------------------------------------|
|----------------------------------------------|
|----------------------------------[3]b4---(3)-|
|-0---0-0-0-0-0-0-0-0-0-0-0---0----------------|
|-0---0-0-0-0-0-0-0-0-0-0-0---0----------------|


  D5
  Gtrs I, II
  PM--------------------------------------------------------------|
  S S S S S S T T T T S S S S S S S S   S S S S S S S S T T T T S Q  S
|-------------------------------------|--------------------------------|
|-------------------------------------|--------------------------------|
|-------------------------------------|--------------------------------|
|-------------------------------------|--------------------------------|
|-0-0-0---0---0-0-0-0-0---0---0-0-0---|-0---0-0-0-0-0-0-0-0-0-0-0------|
|-0-0-0---0---0-0-0-0-0---0---0-0-0---|-0---0-0-0-0-0-0-0-0-0-0-0------|


  PM-------------------------|      PM---------
  S S S S S S Q  S S S S E   H    E S S S S E
|--------------------------|------------------|
|--------------------------|------------------|
|--------------------------|------------------|
|--------------------------|------------------|
|-0-0---0---0----0-0---0---|--------0-0---0---|
|-0-0---0---0----0-0---0---|--------0-0---0---|


 ----------------------------|      PM------|
  S S S S S S Q  S S S S E   H    E S S S S E
|--------------------------|-------------------||
|--------------------------|-------------------||
|--------------------------|-------------------||
|--------------------------|-------------------||
|-0-0---0---0----0-0---0---|--------0-0---0----||
|-0-0---0---0----0-0---0---|--------0-0---0----||


 "Forget what you have.."
  D5    N.D5    N.D5    N.C.        D5
  Gtr I
  PM|     PM|     PM|               PM------------------------|
  S S S E S S S E S S S E S   +S  S S S S S S S S S S S S S S S
|---------------------------|-----------------------------------|
|---------------------------|-----------------------------------|
|---------------------------|-----------------------------------|
|---------------------------|-----------------------------------|
|-0-0---5-0-0---6-0-0---3---|-------0-0---0-0---0-0---0-0---0---|
|-0-0-----0-0-----0-0-----4-|-(4)---0-0---0-0---0-0---0-0---0---|
|
| Gtr II
| PM|     PM|     PM|               PM------------------------|
| S S S E S S S E S S S E S   +S  S S S S S S S S S S S S S S S
|---------------------------|-----------------------------------|
|---------------------------|-----------------------------------|
|---------------------------|-----------------------------------|
|---------------------------|-----------------------------------|
|-0-0---5-0-0---6-0-0---3---|-------0-0---0-0---0-0---0-0---0---|
|-0-0-----0-0-----0-0-----4-|-(4)---0-0---0-0---0-0---0-0---0---|


        N.D5    N.CD5    N.C.           D5
  PM|     PM|      PM|                  PM------------------------|
  S S S E S S S  E S S S  E  S    +S  S S S S S S S S S S S S S S S
|------------------------------|------------------------------------|
|------------------------------|------------------------------------|
|------------------------------|------------------------------------|
|------------------------------|------------------------------------|
|-0-0---5-0-0----6-0-0----6--9-|--(9)---0-0---0-0---0-0---0-0---0---|
|-0-0-----0-0------0-0---------|--------0-0---0-0---0-0---0-0---0---|
|
| PM|     PM|      PM|                  PM------------------------|
| S S S E S S S  E S S S  E  S    +S  S S S S S S S S S S S S S S S
|------------------------------|------------------------------------|
|------------------------------|------------------------------------|
|------------------------------|------------------------------------|
|------------------------------|------------------------------------|
|-0-0---9-0-0---10-0-0---10-13-|-(13)---0-0---0-0---0-0---0-0---0---|
|-0-0-----0-0------0-0---------|--------0-0---0-0---0-0---0-0---0---|


        N.D5    N.D5    N.C.
  Gtr I
  PM|     PM|     PM|             PM|   PM----------|
  S S S E S S S E S S S E S   E S S S S S S S S S S S E.
|---------------------------|-----------------------------||
|---------------------------|-----------------------------||
|---------------------------|-----------------------------||
|---------------------------|-----------------------------||
|-0-0-----0-0-----0-0-------|-----------------------------||
|-0-0---8-0-0---8-0-0---8---|-8---8-8---7-7---7-7---7-----||
|
| Gtr II
| PM|     PM|     PM|             PM|   PM----------|
| S S S E S S S E S S S E S   E S S S S S S S S S S S E.
|---------------------------|-----------------------------||
|---------------------------|-----------------------------||
|---------------------------|-----------------------------||
|---------------------------|-----------------------------||
|-0-0-0---0-0-----0-0-------|-----------------------------||
|-0-0-0-0-0-0---0-0-0---0---|-5---5-5---4-4---4-4---4-----||


 Guitar Solo
     D5
  Gtr I
      ~~~                            ~~~~
   a  H.                   Q         H      H
|-10h12-------------------10-----|----------------------|
|--------------------------------|--10------------------|
|--------------------------------|---------12-----------|
|--------------------------------|----------------------|
|--------------------------------|----------------------|
|--------------------------------|----------------------|
|
| Gtr II
|     PM---------------------------|          PM---------
|     S  S S S S S Q  S S  S S E     H      E S S S S E
|--------------------------------|----------------------|
|--------------------------------|----------------------|
|--------------------------------|----------------------|
|--------------------------------|----------------------|
|-----0--0---0---0----0-0----0---|------------0-0---0---|
|-----0--0---0---0----0-0----0---|------------0-0---0---|
|
|    Gtr III
|     W                             +W
|----17--------------------------|-(17)-----------------|
|----18--------------------------|-(18)-----------------|
|--------------------------------|----------------------|
|--------------------------------|----------------------|
|--------------------------------|----------------------|
|--------------------------------|----------------------|


                        ~~~~~~~~~~~~~~~~~~~
   E.     E.      E  a  H              +H     H
|-----------------------------------|------------------------|
|-----------------------------------|------------------------|
|-----------------------------------|---------9--------------|
|--7------8------10-10h11-----------|-(11)-------------------|
|-----------------------------------|------------------------|
|-----------------------------------|------------------------|
|
|-------------------------------------|         PM------|
|  S  S S S  S S  Q       S S S S E     H     E S S S S E
|-----------------------------------|------------------------|
|-----------------------------------|------------------------|
|-----------------------------------|------------------------|
|-----------------------------------|------------------------|
|--0--0---0----0----------0-0---0---|-----------0-0---0------|
|--0--0---0----0----------0-0---0---|-----------0-0---0------|
|
|  W                                   +W
|-17--------------------------------|-(17)-------------------|
|-17--------------------------------|-(17)-------------------|
|-----------------------------------|------------------------|
|-----------------------------------|------------------------|
|-----------------------------------|------------------------|
|-----------------------------------|------------------------|


                                        ~~~~
   E    E    E    E  E  E    E    E     W
|-------------------10h13---12---10-|---------------------|
|-----------10h==13-----------------|--13-----------------|
|--7h==10---------------------------|---------------------|
|-----------------------------------|---------------------|
|-----------------------------------|---------------------|
|-----------------------------------|---------------------|
|
|  PM---------------------------------|         PM---------
|  S S  S S  S S  Q     S S  S S  E     H     E S S S S E
|-----------------------------------|---------------------|
|-----------------------------------|---------------------|
|-----------------------------------|---------------------|
|-----------------------------------|---------------------|
|--0-0----0----0--------0-0----0----|-----------0-0---0---|
|--0-0----0----0--------0-0----0----|-----------0-0---0---|
|
|  W                                   +W
|-17--------------------------------|-(17)----------------|
|-18--------------------------------|-(18)----------------|
|-----------------------------------|---------------------|
|-----------------------------------|---------------------|
|-----------------------------------|---------------------|
|-----------------------------------|---------------------|


   E.      E.      E  E     +Q.            +W
|---------------------------------------|----------------------|
|-10------11------13-13b14-(13)---------|-(13)-----------------|
|---------------------------------------|----------------------|
|---------------------------------------|----------------------|
|---------------------------------------|----------------------|
|---------------------------------------|----------------------|
|
|-----------------------------------------|         PM------|
|  S  S S  S  S S  Q         S  S S S E     H     E S S S S E
|---------------------------------------|----------------------|
|---------------------------------------|----------------------|
|---------------------------------------|----------------------|
|---------------------------------------|----------------------|
|--0--0----0----0------------0--0---0---|-----------0-0---0----|
|--0--0----0----0------------0--0---0---|-----------0-0---0----|
|
|  W                                       +W
|-17------------------------------------|-(17)-----------------|
|-17------------------------------------|-(17)-----------------|
|---------------------------------------|----------------------|
|---------------------------------------|----------------------|
|---------------------------------------|----------------------|
|---------------------------------------|----------------------|


  A5
                                    ~
   E S  S E  E  E  E E  E     E   E H     Q
|----9h12p9---------------|------------------|
|-----------10------------|------------------|
|--------------12-10-9----|---------9--------|
|----------------------12-|--11--12----------|
|-------------------------|--------------12--|
|-------------------------|------------------|
|
|  W                         +W
|-------------------------|------------------|
|-------------------------|------------------|
|-------------------------|------------------|
|--7----------------------|--(7)-------------|
|--7----------------------|--(7)-------------|
|--7----------------------|--(7)-------------|
|
|  W                         +W
|-12----------------------|-(12)-------------|
|-10----------------------|-(10)-------------|
|--9----------------------|--(9)-------------|
|-10----------------------|-(10)-------------|
|-12----------------------|-(12)-------------|
|-------------------------|------------------|


  F5                     G5        A5
        ~                           ~~
   H    H       +Q    Q   Q   Q     W
|------------|-------------------|-------|
|------------|-------------------|-------|
|------------|-------------------|-------|
|------------|-------------------|-11----|
|-10----8----|--(8)--10--12--14--|-------|
|------------|-------------------|-------|
|
|  W             H        H         W
|------------|-------------------|-------|
|------------|-------------------|-------|
|------------|-------------------|-------|
|--3---------|---3--------5------|--7----|
|--3---------|---3--------5------|--7----|
|--3---------|---3--------5------|--7----|
|
|  W            +W                  W
|-13---------|-(13)--------------|-12----|
|-12---------|-(12)--------------|-10----|
|-10---------|-(10)--------------|--9----|
|-12---------|-(12)--------------|-10----|
|-14---------|-(14)--------------|-12----|
|------------|-------------------|-------|


    ~~~~                             ~
   +E  S  S E  E  E  E E  E    E   E H    Q
|------9h12p9---------------|----------------|
|-------------10------------|----------------|
|----------------12-10-9----|--------9-------|
|-(11)-------------------12-|-11--12------7--|
|---------------------------|----------------|
|---------------------------|----------------|
|
|  +W                         +W
|---------------------------|----------------|
|---------------------------|----------------|
|---------------------------|----------------|
|--(7)----------------------|-(7)------------|
|--(7)----------------------|-(7)------------|
|--(7)----------------------|-(7)------------|
|
|  +W                          W
|-(12)----------------------|-13-------------|
|-(10)----------------------|-12-------------|
|--(9)----------------------|-10-------------|
|-(10)----------------------|-12-------------|
|-(12)----------------------|-14-------------|
|---------------------------|----------------|


  F5      G5     D5
    ~~~~~~~~
    H     H       W           +W
|--------------|-----------|---------||
|--------------|-----------|---------||
|--10-----9----|-----------|---------||
|--------------|-11--------|-(11)----||
|--------------|-----------|---------||
|--------------|-----------|---------||
|
|   H     H       W           +W
|--------------|-----------|---------||
|--------------|-----------|---------||
|--------------|-----------|---------||
|---3-----5----|--0--------|--(0)----||
|---3-----5----|--0--------|--(0)----||
|---3-----5----|--0--------|--(0)----||
|
|  +W             W           +W
|-(13)---------|-21--------|-(21)----||
|-(12)---------|-21--------|-(21)----||
|-(10)---------|-18--------|-(18)----||
|-(12)---------|-19--------|-(19)----||
|-(14)---------|-----------|---------||
|--------------|-----------|---------||


 Breakdown
  D5                          N.C.
  Gtr I
  PM----------|   PM----|
  T T S E T T S E T T S E S S   S      +S
|------------------------------------------|
|------------------------------------------|
|------------------------------------------|
|------------------------------[3]b4---(3)-|
|-0-0-0---0-0-0---0-0-0---0----------------|
|-0-0-0---0-0-0---0-0-0---0----------------|
|
| Gtr II
| PM----------|   PM----|
| T T S E T T S E T T S E S S   S      +S
|------------------------------------------|
|------------------------------------------|
|-----------------------------[10]b11-(10)-|
|------------------------------------------|
|-0-0-0---0-0-0---0-0-0---0----------------|
|-0-0-0---0-0-0---0-0-0---0----------------|


  D5
  PM----------|   PM----------------------------|   PM------------|
  T T S E T T S E T T S E T T S E   T T S E T T S E T T S E T T S E
|---------------------------------|---------------------------------|
|---------------------------------|---------------------------------|
|---------------------------------|---------------------------------|
|---------------------------------|---------------------------------|
|-0-0-0---0-0-0---0-0-0---0-0-0---|-0-0-0---0-0-0---0-0-0---0-0-0---|
|-0-0-0---0-0-0---0-0-0---0-0-0---|-0-0-0---0-0-0---0-0-0---0-0-0---|
|
| PM----------|   PM----------------------------|   PM------------|
| T T S E T T S E T T S E T T S E   T T S E T T S E T T S E T T S E
|---------------------------------|---------------------------------|
|---------------------------------|---------------------------------|
|---------------------------------|---------------------------------|
|---------------------------------|---------------------------------|
|-0-0-0---0-0-0---0-0-0---0-0-0---|-0-0-0---0-0-0---0-0-0---0-0-0---|
|-0-0-0---0-0-0---0-0-0---0-0-0---|-0-0-0---0-0-0---0-0-0---0-0-0---|


  Gtrs I, II
  PM----------------------------------------------|
  S S E S S E S S E S S E   S S E S S E S S E S S E
|-------------------------|-------------------------|
|-------------------------|-------------------------|
|-------------------------|-------------------------|
|-------------------------|-------------------------|
|-0-0-0-0-0-0-0-0-0-0-0-0-|-0-0-0-0-0-0-0-0-0-0-0-0-|
|-0-0-0-0-0-0-0-0-0-0-0-0-|-0-0-0-0-0-0-0-0-0-0-0-0-|


  Gtr I
  PM--|                    PM--|
  T T S H                  T T S Q
|------------------------------------------|
|------------------------------------------|
|------------------------------------------|
|------------------------------------------|
|-0-0-0--------------------0-0-0-----------|
|-0-0-0--------------------0-0-0-----------|
|
| Gtr II
|         PM----------|            PM-------
| Q       T T T T T T S Q.         T T T T
|------------------------------------------|
|------------------------------------------|
|------------------------------------------|
|------------------------------------------|
|---------0-0-0-0-0-0-0------------0-0-0-0-|
|---------0-0-0-0-0-0-0------------0-0-0-0-|


                                N.C.
           PM--|
  Q        T T S Q.         S S   S      +S
|--------------------------------------------||
|--------------------------------------------||
|--------------------------------------------||
|--------------------------------[3]b4---(3)-||
|----------0-0-0------------0----------------||
|----------0-0-0------------0----------------||
|
|-----|             PM----|
| T T S Q.          T T S E S S   S      +S
|--------------------------------------------||
|--------------------------------------------||
|-------------------------------[10]b11-(10)-||
|--------------------------------------------||
|-0-0-0-------------0-0-0---0----------------||
|-0-0-0-------------0-0-0---0----------------||


   "No mistakes.."
    D5
    PM---------------------------------------
    T T S E T T T T T T S E T T S E T T T T
||------------------------------------------|
||o-----------------------------------------|
||------------------------------------------|
||------------------------------------------|
||o-0-0-0---0-0-0-0-0-0-0---0-0-0---0-0-0-0-|
||--0-0-0---0-0-0-0-0-0-0---0-0-0---0-0-0-0-|
|
|   PM---------------------------------------
|   T T S E T T T T T T S E T T S E T T T T
||------------------------------------------|
||o-----------------------------------------|
||------------------------------------------|
||------------------------------------------|
||o-0-0-0---0-0-0-0-0-0-0---0-0-0---0-0-0-0-|
||--0-0-0---0-0-0-0-0-0-0---0-0-0---0-0-0-0-|


                              N.C.
 -----------------------|
  T T S E T T S E T T S E S S   S      +S    3x
|--------------------------------------------||
|-------------------------------------------o||
|--------------------------------------------||
|------------------------------[3]b4---(3)---||
|-0-0-0---0-0-0---0-0-0---0-----------------o||
|-0-0-0---0-0-0---0-0-0---0------------------||
|
|-----------------------|
| T T S E T T S E T T S E S S   S      +S    3x
|--------------------------------------------||
|-------------------------------------------o||
|-----------------------------[10]b11-(10)---||
|--------------------------------------------||
|-0-0-0---0-0-0---0-0-0---0-----------------o||
|-0-0-0---0-0-0---0-0-0---0------------------||


  D5
  Gtrs I, II
  PM--------------------------------------------------------------|
  T T S E T T T T T T S E T T S E T T T T   T T S E T T S E T T S E S E.
|-----------------------------------------|------------------------------||
|-----------------------------------------|------------------------------||
|-----------------------------------------|------------------------------||
|-----------------------------------------|------------------------------||
|-0-0-0---0-0-0-0-0-0-0---0-0-0---0-0-0-0-|-0-0-0---0-0-0---0-0-0---0----||
|-0-0-0---0-0-0-0-0-0-0---0-0-0---0-0-0-0-|-0-0-0---0-0-0---0-0-0---0----||


   "You were the price.."
    F5E5EbD5F#5 F5  E5EbF5E5Eb5 D5F#F5  E5  EbF5  E5  EbD5N.C.
    Gtr I
    PM--------------------------------------------------|
    S S E E T T T T E E S S E   E S S S S S S T T T T E E   S      +S
||----------------------------|-----------------------------------------||
||o---------------------------|----------------------------------------o||
||----------------------------|---------------------------[10]b11-(10)--||
||----------------------------|-----------------------------------------||
||o-3-2-1-0-4-4-3-3-2-1-3-2-1-|-0-4-3-3-2-2-1-3-3-2-2-1-0--------------o||
||--3-2-1-0-4-4-3-3-2-1-3-2-1-|-0-4-3-3-2-2-1-3-3-2-2-1-0---------------||
|
|   Gtr II
|   PM--------------------------------------------------|
|   S S E E T T T T E E S S E   E S S S S S S T T T T E E   S      +S
||----------------------------|-----------------------------------------||
||o---------------------------|----------------------------------------o||
||----------------------------|-----------------------------------------||
||----------------------------|----------------------------[3]b4---(3)--||
||o-3-2-1-0-4-4-3-3-2-1-3-2-1-|-0-4-3-3-2-2-1-3-3-2-2-1-0--------------o||
||--3-2-1-0-4-4-3-3-2-1-3-2-1-|-0-4-3-3-2-2-1-3-3-2-2-1-0---------------||


  D5
  PM-----------------------------------
  S S S S S S T T T T S S S S S S S S
|-------------------------------------|
|-------------------------------------|
|-------------------------------------|
|-------------------------------------|
|-0-0-0---0---0-0-0-0-0---0---0-0-0---|
|-0-0-0---0---0-0-0-0-0---0---0-0-0---|
|
| PM-----------------------------------
| S S S S S S T T T T S S S S S S S S
|-------------------------------------|
|-------------------------------------|
|-------------------------------------|
|-------------------------------------|
|-0-0-0---0---0-0-0-0-0---0---0-0-0---|
|-0-0-0---0---0-0-0-0-0---0---0-0-0---|


                                  N.C.
 -------------------------------|
  S S S S S S S S T T T T S S S S   S      +S
|----------------------------------------------|
|----------------------------------------------|
|---------------------------------[10]b11-(10)-|
|----------------------------------------------|
|-0---0-0-0-0-0-0-0-0-0-0-0---0----------------|
|-0---0-0-0-0-0-0-0-0-0-0-0---0----------------|
|
|-------------------------------|
| S S S S S S S S T T T T S S S S   S      +S
|----------------------------------------------|
|----------------------------------------------|
|----------------------------------------------|
|----------------------------------[3]b4---(3)-|
|-0---0-0-0-0-0-0-0-0-0-0-0---0----------------|
|-0---0-0-0-0-0-0-0-0-0-0-0---0----------------|


  D5
  Gtrs I, II
  PM--------------------------------------------------------------|
  S S S S S S T T T T S S S S S S S S   S S S S S S S S T T T T S Q  S
|-------------------------------------|--------------------------------|
|-------------------------------------|--------------------------------|
|-------------------------------------|--------------------------------|
|-------------------------------------|--------------------------------|
|-0-0-0---0---0-0-0-0-0---0---0-0-0---|-0---0-0-0-0-0-0-0-0-0-0-0------|
|-0-0-0---0---0-0-0-0-0---0---0-0-0---|-0---0-0-0-0-0-0-0-0-0-0-0------|


  PM-------------------------|      PM---------
  S S S S S S Q  S S S S E   H    E S S S S E
|--------------------------|------------------|
|--------------------------|------------------|
|--------------------------|------------------|
|--------------------------|------------------|
|-0-0---0---0----0-0---0---|--------0-0---0---|
|-0-0---0---0----0-0---0---|--------0-0---0---|


 ----------------------------|      PM------|
  S S S S S S Q  S S S S E   H    E S S S S E
|--------------------------|-------------------||
|--------------------------|-------------------||
|--------------------------|-------------------||
|--------------------------|-------------------||
|-0-0---0---0----0-0---0---|--------0-0---0----||
|-0-0---0---0----0-0---0---|--------0-0---0----||


 Outro
  D5    N.D5    N.D5    N.C.        D5
  Gtr I
  PM|     PM|     PM|               PM------------------------|
  S S S E S S S E S S S E S   +S  S S S S S S S S S S S S S S S
|---------------------------|-----------------------------------|
|---------------------------|-----------------------------------|
|---------------------------|-----------------------------------|
|---------------------------|-----------------------------------|
|-0-0---5-0-0---6-0-0---3---|-------0-0---0-0---0-0---0-0---0---|
|-0-0-----0-0-----0-0-----4-|-(4)---0-0---0-0---0-0---0-0---0---|
|
| Gtr II
| PM|     PM|     PM|               PM------------------------|
| S S S E S S S E S S S E S   +S  S S S S S S S S S S S S S S S
|---------------------------|-----------------------------------|
|---------------------------|-----------------------------------|
|---------------------------|-----------------------------------|
|---------------------------|-----------------------------------|
|-0-0---5-0-0---6-0-0---3---|-------0-0---0-0---0-0---0-0---0---|
|-0-0-----0-0-----0-0-----4-|-(4)---0-0---0-0---0-0---0-0---0---|


        N.D5    N.CD5    N.C.           D5
  PM|     PM|      PM|                  PM------------------------|
  S S S E S S S  E S S S  E  S    +S  S S S S S S S S S S S S S S S
|------------------------------|------------------------------------|
|------------------------------|------------------------------------|
|------------------------------|------------------------------------|
|------------------------------|------------------------------------|
|-0-0---5-0-0----6-0-0----6--9-|--(9)---0-0---0-0---0-0---0-0---0---|
|-0-0-----0-0------0-0---------|--------0-0---0-0---0-0---0-0---0---|
|
| PM|     PM|      PM|                  PM------------------------|
| S S S E S S S  E S S S  E  S    +S  S S S S S S S S S S S S S S S
|------------------------------|------------------------------------|
|------------------------------|------------------------------------|
|------------------------------|------------------------------------|
|------------------------------|------------------------------------|
|-0-0---9-0-0---10-0-0---10-13-|-(13)---0-0---0-0---0-0---0-0---0---|
|-0-0-----0-0------0-0---------|--------0-0---0-0---0-0---0-0---0---|


        N.D5    N.D5    N.C.
                             5/4
  PM|     PM|     PM|             PM|   PM----------|
  S S S E S S S E S S S E S   E S S S S S S S S S S S Q..
|---------------------------|-------------------------------*|
|---------------------------|-------------------------------*|
|---------------------------|-------------------------------*|
|---------------------------|-------------------------------*|
|-0-0-----0-0-----0-0-------|-------------------------------*|
|-0-0---8-0-0---8-0-0---8---|-8---8-8---7-7---7-7---7-------*|
|
| PM|     PM|     PM|             PM|   PM----------|
| S S S E S S S E S S S E S   E S S S S S S S S S S S Q..
|---------------------------|-------------------------------*|
|---------------------------|-------------------------------*|
|---------------------------|-------------------------------*|
|---------------------------|-------------------------------*|
|-0-0-0---0-0-----0-0-------|-------------------------------*|
|-0-0-0-0-0-0---0-0-0---0---|-5---5-5---4-4---4-4---4-------*|



Duration Legend
---------------
W - whole; H - half; Q - quarter; E - 8th; S - 16th; T - 32nd; X - 64th; a - acciaccatura
+ - note tied to previous; . - note dotted; .. - note double dotted
Uncapitalized letters represent notes that are staccato (1/2 duration)
Irregular groupings are notated above the duration line
Duration letters will always appear directly above the note/fret number it represents the
duration for.  Duration letters with no fret number below them represent rests.  Multi-
bar rests are notated in the form Wxn, where n is the number of bars to rest for.  Low
melody durations appear below the staff

Tablature Legend
----------------
 h   - hammer-on
 p   - pull-off
 b   - bend
 pb  - pre-bend
 r   - bend release (if no number after the r, then release immediately)
 /\  - slide into or out of (from/to "nowhere")
 s   - legato slide
 S   - shift slide
 - natural harmonic
[n]  - artificial harmonic
n(n) - tapped harmonic
 ~   - vibrato
 tr  - trill
 T   - tap
 TP  - trem. picking
 PM  - palm muting
\n/  - tremolo bar dip; n = amount to dip
 \n  - tremolo bar down
 n/  - tremolo bar up
/n\  - tremolo bar inverted dip
 =   - hold bend; also acts as connecting device for hammers/pulls
 <> - volume swell (louder/softer)
 x   - on rhythm slash represents muted slash
 o   - on rhythm slash represents single note slash

Misc Legend
-----------
 |  - bar
||  - double bar
||o - repeat start
o|| - repeat end
*|  - double bar (ending)
 :  - bar (freetime)
 $  - Segno
 &  - Coda
Tempo markers -  = BPM(8/16=s8/s16), where s8 = swing 8ths, s16 = swing 16ths


** Generated using Power Tab Editor by Brad Larsen: The Official Power Tab Web Site
Tap to rate this tab
# A B C D E F G H I J K L M N O P Q R S T U V W X Y Z