Song name
# A B C D E F G H I J K L M N O P Q R S T U V W X Y Z

Box Car Racer - I Feel So tab

Help us improve GuitareTab! Take a short survey!

*=Palm
B=Bend

(Intro) after piano  {Clean}

e----------------
b----------------
g-------5-------3
d-5-5-4-4-2-2-4-4
a----------------
e----------------

(Intro part two) With rythm of bass   {Distortion}

e---
b---
g---
d---
a-5b
e-3b

(During Intro) Listen for timing    {Distortion}

e-
b-
g-
d-12
a-10
e-

(Intro) With all band                 {Distorion}

e-------------------
b-------------------
g---------------7777 <4th time change to --44--
d---------------5555 <                   --22--
a-5-55-5-5-55-5-----
e-3-33-3-3-33-3-----

(Verse) Through all of verse           {Clean}


e----------------
b----------------
g-------5-------3
d-5-5-4-4-2-2-4-4
a----------------
e----------------

(Verse) After ^^ two times           {Distorion/Palming)
    
e------------
b------------
g------------
d------------
a-5*-4*-2*-4*
e-3*-2*-0*-2*
  ^  ^  ^  ^
Palm these also

(Chorus)            {Distortion}

e------------------------------------
b------------------------------------
g------------------------------------
d-99999999-99999999-66666666-99999999
a-77777777-66666666-44444444-66666666
e------------------------------------

(Bridge) Part 1 With bass  {Distortion}

e-----          -----------------
b-----          -----------------
g-----          -----------------
d-7***    Then  -------------7777
a-5***          -5**-*-***-*-5555
e-^---          -3**-*-***-*-----
                 ^
   Palm      These     Also

(Bridge) part 2 With Snare Drum    {Distortion}

e-----------------
b-----------------
g-----------------
d-----------------
a-2-22-22-22-22222
e-----------------

This is my first tab so i hope you like it.  My name is Brandon Colon and im 12 years old
It might not be perfect because i did it all by ear.  I hope you like it!
Related for I Feel So tab