Song name
# A B C D E F G H I J K L M N O P Q R S T U V W X Y Z

Breaking Benjamin - Intro tab

Breaking Benjamin
Intro
tabbed by U B the band
tuning Bb F Bb Eb G C


Intro guitar 1: 00:12
 C|-----------------------------------------------------|
 G|--------------6----5-------------------6----5--------|
Eb|----7----5--------------7----7----5---------------7--|
Bb|--0---00---00---00---00----0---00---00---00----00----|
 F|-----------------------------------------------------|
Bb|-----------------------------------------------------|

Guitar 2, Bass and Drums enter

guitar 1: 00:20
 C|---------------------------------------------------|
 G|-------------6----5-------------------6----5-------|
Eb|---7----5--------------7----7----5--------------7--|
Bb|---------------------------------------------------|
 F|---------------------------------------------------|
Bb|---------------------------------------------------|

guitar 2: 00:20
 C|---------------------------------------------------|
 G|---------------------------------------------------|
Eb|---------------------------------------------------|
Bb|------7--7--7--7--7h8----------7--7--7--7--7h8-----|
 F|---------------------------------------------------|
Bb|--0------------------------8-----------------------|

guitar 1: 00:27
 C|---------------------------------------------------|
 G|-------------6----5-------------------6----5----8--|
Eb|---7----5--------------7----7----5-----------------|
Bb|---------------------------------------------------|
 F|---------------------------------------------------|
Bb|---------------------------------------------------|

guitar 2: 00:27
 C|---------------------------------------------------|
 G|---------------------------------------------------|
Eb|---------------------------------------------------|
Bb|------7--7--7--7--7h8----------7--7--7--7--7h8-----|
 F|---------------------------------------------------|
Bb|--0------------------------8-----------------------|

guitar 1: 00:35
 C|---------------------------------------------------|
 G|-------------6----5---------6----5---8/10--8--6\5--|
Eb|---7----5--------------7---------------------------|
Bb|---------------------------------------------------|
 F|---------------------------------------------------|
Bb|---------------------------------------------------|

guitar 2: 00:34
 C|---------------------------------------------------|
 G|---------------------------------------------------|
Eb|---------------------------------------------------|
Bb|---------8--8--8--8--8-----------------------------|
 F|-------------------------------10--10------10--10--|
Bb|--8-7-5-----------------5-7-8----------10----------|

guitar 1: 00:43
 C|---------------------------------------------------|
 G|------------6----5---------------------------------|
Eb|--7----5--------------7----------------------------|
Bb|---------------------------------------------------|
 F|---------------------------------------------------|
Bb|---------------------------------------------------|

guitar 2: 00:43
 C|---------------------------------------------------|
 G|---------------------------------------------------|
Eb|---------------------------------------------------|
Bb|------7--7--7--7--7h8----------7--7--7--7--7h8-----|
 F|---------------------------------------------------|
Bb|--0------------------------8-----------------------|

guitar 2: 00:50
 C|---------------------------------------------------|
 G|---------------------------------------------------|
Eb|---------------------------------------------------|
Bb|------7--7--7--7--7h8----------7--7--7--7--7h8-----|
 F|---------------------------------------------------|
Bb|--0------------------------8-----------------------|

guitar 2: 00:57
 C|---------------------------------------------------|
 G|---------------------------------------------------|
Eb|---------------------------------------------------|
Bb|---------8--8--8--8--8-----------------------------|
 F|-------------------------------10--10------10--10--|
Bb|--8-7-5-----------------5-7-8----------10----------|

guitar 2: 01:06
 C|---------------------------------------------------|
 G|---------------------------------------------------|
Eb|---------------------------------------------------|
Bb|---------------------------------------------------|
 F|---------------------------------------------------|
Bb|--0------------------------------------------------|

Finished!
Tap to rate this tab
# A B C D E F G H I J K L M N O P Q R S T U V W X Y Z