Song name
# A B C D E F G H I J K L M N O P Q R S T U V W X Y Z

Breaking Benjamin - Give Me A Sign tab

Standard Tuning
(I know they probably play it in an obscure tuning but I'm too lazy to
tune down the strings and trying to go by ear in standard tuning.)

Intro/Post Chorus (Rhythm)
e------------------------------------------------------------------------|
b------------------------------------------------------------------------|
g-8-8-8-8-6-6-6-6--------------------------------------------------------|
d-8-8-8-8-6-6-6-6-6-6-6-6-6-6--8-8--9-9-9-9-9-9-9-9--4-4-4-4--3-3-3-3-4~-|
a-6-6-6-6-4-4-4-4-6-6-6-6-6-6--8-8--9-9-9-9-9-9-9-9--4-4-4-4--3-3-3-3-4~-|
e-----------------4-4-4-4-4-4--6-6--7-7-7-7-7-7-7-7--2-2-2-2--1-1-1-1-2~-|

Lead
e----------------------------------------------------------------------|
b----------------------------------------11----------------------------|
g----10-11----10-11---------8~--11----------------11---10-11-----11-10-|
d--8--------8--------9~-11~--------9-8-9----9-8-9----8-------9-8-------|
a----------------------------------------------------------------------|
e----------------------------------------------------------------------|

Verse (You can power chord it or play regular chord form)
Rhythm
e-2-2-2-2-2-2-2-2--6-6-6-6-6-6-6-6--7-7-7-7-7-7-7-7-7-7-7-7-7-7-7-7--|
b-2-2-2-2-2-2-2-2--6-6-6-6-6-6-6-6--7-7-7-7-7-7-7-7-7-7-7-7-7-7-7-7--|
g-3-3-3-3-3-3-3-3--7-7-7-7-7-7-7-7--8-8-8-8-8-8-8-8-8-8-8-8-8-8-8-8--|
d-4-4-4-4-4-4-4-4--8-8-8-8-8-8-8-8--9-9-9-9-9-9-9-9-9-9-9-9-9-9-9-9--|
a-4-4-4-4-4-4-4-4--8-8-8-8-8-8-8-8--9-9-9-9-9-9-9-9-9-9-9-9-9-9-9-9--|
e-2-2-2-2-2-2-2-2--6-6-6-6-6-6-6-6--7-7-7-7-7-7-7-7-7-7-7-7-7-7-7-7--|

Lead
e-----------------------2~----------------|
b-------------------0------------4----6-7-|
g---3-6~-----6-8~-----3--------6----7-----|
d-4--------8-----------------4------------|
a-----------------------------------------|
e-----------------------------------------|

Pre-Chorus
Rhythm
e---------------------------------|
b---------------------------------|
g-8-8-8-8-6-6-6-6-4-4-4-4-4-4-4-4-|
d-8-8-8-8-6-6-6-6-4-4-4-4-4-4-4-4-|
a-6-6-6-6-4-4-4-4-2-2-2-2-2-2-2-2-|
e---------------------------------|

Lead
e---------------------------10---------|
b-11-9-11--11-9-11--11-9-11----11-9-11-|
g--------------------------------------|

Chorus
Rhythm
e-----------------------------------------------------------------|
b-----------------------------------------------------------------|
g-----------------6-6-6-6-6-6-6-6-8-8-8-8-6-6-6-6-4-4-4-4-4-4-4-4-|
d-4-4-4-4-4-4-4-4-6-6-6-6-6-6-6-6-8-8-8-8-6-6-6-6-4-4-4-4-4-4-4-4-|
a-4-4-4-4-4-4-4-4-4-4-4-4-4-4-4-4-6-6-6-6-4-4-4-4-2-2-2-2-2-2-2-2-|
e-2-2-2-2-2-2-2-2-------------------------------------------------|

e-----------------------------------------------------------------------|
b-----------------------------------------------------------------------|
g-----------------6-6-6-6-6-6-6-6-8-8-8-8-6-6-6-6-------4-4-4-4-4-4-4-4-|
d-4-4-4-4-4-4-4-4-6-6-6-6-6-6-6-6-8-8-8-8-6-6-6-6--4-4--4-4-4-4-4-4-4-4-|
a-4-4-4-4-4-4-4-4-4-4-4-4-4-4-4-4-6-6-6-6-4-4-4-4--4-4--2-2-2-2-2-2-2-2-|
e-2-2-2-2-2-2-2-2----------------------------------2-2------------------|

e------------------------------------------|
b------------------------------------------| Then
g-----------------6-6-6-6-6-6-6-6-6--------|   to
d-4-4-4-4-4-4-4-4-6-6-6-6-6-6-6-6-6- Post--|
a-4-4-4-4-4-4-4-4-4-4-4-4-4-4-4-4-4--------| Chorus
e-2-2-2-2-2-2-2-2--------------------------|

Lead (It's hard to hear whole thing since it's pretty quiet in background)
First Part
e---------------------------------------------------10---------|
b-----11~--9~------------11-9-11--11-9-11--11-9-11----11-9-11--|
g-11~----------11-10-11----------------------------------------|
d--------------------------------------------------------------|

Second Part
e------------------------------------------|
b------------------------------------------|
g-11-10-11--11-10-11--11-10-11-13-11-10----|
d---------------------------------------11-|

Post Chorus
Verse
Pre-Chorus
Chorus

Bridge
Rhythm
First Time
e--------------------------------------------------------------|
b--------------------------------------------------------------|
g-8-8-8-8-8-8-8-8-----------------------6-6-6--4-4-4-4-4-4-4-4-|
d-8-8-8-8-8-8-8-8-9-9-9-9-9-9-9-9--4-4--6-6-6--4-4-4-4-4-4-4-4-|
a-6-6-6-6-6-6-6-6-9-9-9-9-9-9-9-9--4-4--4-4-4--2-2-2-2-2-2-2-2-|
e-----------------7-7-7-7-7-7-7-7--2-2-------------------------|

Second Time
e-------------------------------------------------|
b-------------------------------------------------|
g-8-8-8-8-8-8-8-8-----------------------6-6-6--4~-|
d-8-8-8-8-8-8-8-8-9-9-9-9-9-9-9-9--4-4--6-6-6--4~-|
a-6-6-6-6-6-6-6-6-9-9-9-9-9-9-9-9--4-4--4-4-4--2~-|
e-----------------7-7-7-7-7-7-7-7--2-2------------|

Lead (Couple times)
e---------10----------|
b-11-9-11----11-9-----|
g-----------------11--|
d---------------------|

Rest of way Should be Easy to pick up.
Tap to rate this tab
# A B C D E F G H I J K L M N O P Q R S T U V W X Y Z