Song name
# A B C D E F G H I J K L M N O P Q R S T U V W X Y Z

Breaking Benjamin - What Lies Beneath Acoustic chords

Highlighted       Show chord diagrams
----------------------------------------------------------------------------            
What Lies Beneath (acoustic) - Breaking Benjamin
----------------------------------------------------------------------------
Tabbed by: Zthokymerej
Email:Pete_hutter000@yahoo.com

Tuning: Eb Ab Db Gb Bb Eb



Did this one myself. Hope you all can enjoy.
Listen here for some timing(http://www.youtube.com/watch?v=5mIVfiBqNqY)

Pardon my singning; I'll re-record it if y'all ask me to.




Chords:
     G      C     Cmaj7   D    B5   G5   Em   E(m)5    C*   C5   C5*
e|---3------0------0------2---------------0-------------------------------|
B|---3------1------0------3---------------0-------------0-----------------|
G|---0------0------0------2-----4---------0----(0)------0----5----4-------|
D|---0------2------2------0-----4----5----2-----2-------4----5----5-------|
A|---2------3------3------------2----5----2-----2-------3----3----2-------|
E|---3-------------------------------3----0-----0-------------------------|


Intro: (x1)

e|-------------------------------------------------------------------------|
B|-------------------------------------------------------------------------|
G|------------------------2-------0--------------0-------------0-----------|
D|----------4----------0-------------4--------4-----------4------4--0------|
A|------2----------------------------------3------------5---5--------------|
E|--0---------------3----------3-------------------------------------------|

Verse: (x4)

e|------------------------------------------------------------------------|
B|------------------------------------------------------------------------|
G|------------------------2------------0------------------0---------------|
D|----------4----------0----------4------4--0----------4------------------|
A|------2-----------------------5---5---------------3---------------------|
E|--0----------------3----------------------------------------------------|



(Verse), or:
           Em
Take a breath
          G
Hold it in
           D
Start a fight
            C* (or just C)
You won't win
         Em
Had enough
          G
Let's begin
         D
Nevermind
          C*
I don't care

(same)
All in all
You're no good
You don't cry
Like you should
Let it go
If you could
When love dies in the end

  G                                     D
       So I'll find what lies beneath
             B5    Em
Your sick twis-ted smile
     D         Cmaj7
As I lie underneath
     C     D     G
Your cold ja-ded eyes
(G still)                  D
Now you turn the tide on me
               B5    Em
'Cause you're so unkind
       D          Cmaj7
I will al-ways be here
        C      B5        (into verse again)
For the rest of  my life


(verse or verse chords)
Here we go
Does it hurt
Say goodbye
To this world
I will not
Be undone
Come to life
It gets worse

All in all
You're no good
You don't cry
Like you should
I'll be gone
When you fall
Your sad life
Says it all

(Chorus Chords)
So I'll find what lies beneath
Your sick twisted smile
As I lay underneath
Your cold jaded eyed
Now you turn the tide on me
'Cause you're so unkind
I will always be here
For the rest of my life

(Bridge X2)
e|-------------------------------------------------------------------------|
B|-------------------------------------------------------------------------|
G|---------000000------------000000----------------------------------------|
D|-2--2222-----------2--2222-----------------------------------------------|
A|-2--2222-----------2--2222-----------------------------------------------|
E|-0--0000-----------0--0000-----------------------------------------------|
         
                                           C5              C5*
         1.(Dont)               Carry me under; youre the devil in diguise
                                             C5                C5*
         2.(God)                Sing for the hopeless; i'm the one you
                                                       Em D C (once each)  
                                                left be-hind


             
(Chorus Chords)
So I'll find what lies beneath
Your sick twisted smile
As I lay underneath
Your cold jaded eyed
Now you turn the tide on me
'Cause you're so unkind
I will always be here
For the rest of my life 



*****************Email me with any questions! thanks!******************
Tap to rate this tab
 
# A B C D E F G H I J K L M N O P Q R S T U V W X Y Z