Song name
# A B C D E F G H I J K L M N O P Q R S T U V W X Y Z

Bring Me The Horizon - Can You Feel My Heart tab

Standard Tuning

As usual, I suggest you to listen the song for a corret strumming

Intro (Synth?)

These are the notes for the intro and the chorus

e|-7-7-7-10-8-7-7---7-10-8-7-7-7-10-8-7-7---7-------|
B|----------------5-----------------------5---5-----|
G|--------------------------------------------------|
D|--------------------------------------------------|
A|--------------------------------------------------|
E|--------------------------------------------------|

These are the chords for the rhythm guitar for the intro and the chorus

e|------------------------------------------|
B|------------------------------------------|
G|-5---2------------------------------------|
D|-5---2---2---2--5-------------------------|
A|-3---0---2---2--5-------------------------|
E|---------0---0--3-------------------------|

In the 2nd verse there is a mini guitar riff

e|----------------------------------------------|
B|----------------------------------------------|
G|----------------------------------------------|
D|------5--7--9---5h7p5-------------------------|
A|---7-------------------7----------------------|
E|----------------------------------------------|

Bridge

e|----------8--------------8---------------------|
B|--8-----7----5-7-8-----7-----------------------|
G|-----------------------------------------------| Repeat this for the whole bridge
D|-----------------------------------------------|
A|-----------------------------------------------|
E|-----------------------------------------------|

Chorus

1st guitar
e|------------------------------------------|
B|------------------------------------------|
G|-5---2------------------------------------|
D|-5---2---2---2--5-------------------------|
A|-3---0---2---2--5-------------------------|
E|---------0---0--3-------------------------|

2nd guitar
e|------------------------------------------|
B|------------------------------------------|
G|--7---------5---4-------------------------|
D|--x---------x---x--------7----------------|
A|--5---------3---2--------x----------------|
E|-------------------------5----------------|
Tap to rate this tab
# A B C D E F G H I J K L M N O P Q R S T U V W X Y Z