Song name
# A B C D E F G H I J K L M N O P Q R S T U V W X Y Z

Buckethead - Gigan tab

ok,i am 12 years old and i love this song but there were no tabs of it and i figured 
dont use no seven string on this track.so heres a
100% accurate tab of the intro its done in drop c tuning,enjoy
|D----------------------------------------------------------------|
|A----------------------------------------------------------------|
|F----------------------------------------------------------------|
|C----------------------------------------------------------------|
|G----------------------------------------------------------------|
|C-00-3-0-7-0-12-0-00-3-0-7-0-10-0-00-3-0-7-0-8-0-8-0-8-0-8-0-8-0-|

|-------------------|
|-------------------|
|-------------------|
|-------------------|
|-------------------|
|-8-0-8-0-8-0-8-0-7-|

|-----------|-12b(14)--------------------------------------------|
|-----------|----------12-12h14-10-10h12-7-7h8-5-5h7-3-2-2br(3)-0|
|-----------|----------------------------------------------------|
|-----------|----------------------------------------------------|
|-----------|----------------------------------------------------|
|-8-0-8-0-7-|----------------------------------------------------|

dont any of you worry,i am going to tab out the rest when i get a chance too.and can 
make more tabs of the elephant mans alarm clock,its a
its a great album,and can somebody tab out super human,unrestrained growth
and bird with a hole in the stomach,please please please.
Tap to rate this tab
# A B C D E F G H I J K L M N O P Q R S T U V W X Y Z