Song name
# A B C D E F G H I J K L M N O P Q R S T U V W X Y Z

Buckethead - Electric Tears tab

Help us improve GuitareTab! Take a short survey!
What a song! I don't usually listen to this genre of music, but I gotta admit, 'Electric 
as an album is bloody awesome! When I first heard this song I thought to myself 'I HAVE 
tab it!'. So here it is!

Tuning is: Eb Ab Db Gb Bb eb

eb----------10-14-|
Bb------7-8-------|
Gb----------------|   x4
Db----9-----------|
Ab--7-------------|
Eb----------------|


eb---------7-|
Bb-------8---|
Gb-----------|
Db-----------|
Ab-----------|
Eb--8-10-----|


eb----------10-14-|
Bb------7-8-------|
Gb----------------|   x2
Db----9-----------|
Ab--7-------------|
Eb----------------|


eb---------7-|
Bb-------8---|
Gb-----------|
Db-----------|
Ab-----------|
Eb--8-10-----|


eb----------10-14-|
Bb------7-8-------|
Gb----------------|   x2
Db----9-----------|
Ab--7-------------|
Eb----------------|


eb---------7-|
Bb-------8---|
Gb-----------|
Db-----------|
Ab-----------|
Eb--8-10-----|


eb----------10-14-|
Bb------7-8-------|
Gb----------------|    x2
Db----9-----------|
Ab--7-------------|
Eb----------------|


eb--7-----------7----------------|
Bb-------------------------7-----|
Gb---------------------------7---|
Db----9-----------9------------5-|    x2
Ab--7---10-9----5---10-9---------|
Eb-------------------------8-----|


eb--7-----------7------------------|
Bb-------------------------7-------|
Gb---------------------------7-----|
Db----------------9------------5---|
Ab--7-10-9-7----5---10-9---------5-|
Eb-------------------------8-------|


eb--7-----------7----------7----------------------------|
Bb------------------------------------7-----------------|
Gb--------------------------------------7-------------7-|
Db------------------------------9---------5--------10---|
Ab--7-10-9-7----7-10-9-7---5-10---9---------------------|
Eb------------------------------------8--------8-10-----|


eb--7----------7------------------|
Bb------------------------7-------|
Gb--------------------------7-----|
Db----9----------9------------5---|
Ab--7---10-9---5---10-9-----------|
Eb------------------------8-------|


eb--7----------7------------------|
Bb------------------------7-------|
Gb--------------------------7-----|
Db---------------9------------4---|
Ab--7-10-9-7---5---10-9-----------|
Eb------------------------8-------|


eb---------------------|
Bb------7-8------------|
Gb---------------------|
Db----9----------------|
Ab--7-----------7------|
Eb-------------------0-|


eb----------10-----|
Bb-----------------|
Gb-----------------|
Db-------10--------|
Ab----10-----------|
Eb--8----------7-0-|


eb----------10-|
Bb-------------|
Gb-------------|
Db-------10----|
Ab----10-------|
Eb--8----------|


eb--10--------|
Bb-----8-7----|
Gb------------|
Db---------10-|
Ab------------|
Eb--0---------|


eb--10-------|
Bb-----8-7---|
Gb-----------|
Db---------9-|
Ab-----------|
Eb--0--------|


eb--10--------|
Bb-----8-7----|
Gb------------|
Db---------10-|
Ab------------|
Eb--0---------|


eb-------------|
Bb-------------|
Gb---------7-9-|
Db-------------|
Ab----7-10-----|
Eb--8----------|


eb------------------------------|
Bb------------------------------|
Gb--9-------------------9-------|
Db--9-------------------9-------|
Ab--7-------------------7-------|
Eb--0-------------------0-------|
			        |
eb-------------------10-10-8----|
Bb----------10-12-12---------12-|
Gb--9-11-12---------------------|
Db------------------------------|
Ab------------------------------|
Eb------------------------------|


eb------------------------------|
Bb------------------------------|
Gb--9-------------------9-------|
Db--9-------------------9-------|
Ab--7-------------------7-------|
Eb--0-------------------0-------|
                                |
eb------------------------------|
Bb----------10------------------|
Gb--9-11-12----12-11-11-12-11-9-|
Db------------------------------|
Ab------------------------------|
Eb------------------------------|


eb------------------------------|
Bb------------------------------|
Gb--9-------------------9-------|
Db--9-------------------9-------|
Ab--7-------------------7-------|
Eb--0-------------------0-------|
			        |
eb-------------------10-10-8----|
Bb----------10-12-12---------12-|
Gb--9-11-12---------------------|
Db------------------------------|
Ab------------------------------|
Eb------------------------------|


eb------------------------------|
Bb------------------------------|
Gb--9-------------------9-------|
Db--9-------------------9-------|
Ab--7-------------------7-------|
Eb--0-------------------0-------|
                                |
eb------------------------------|
Bb----------10------------------|
Gb--9-11-12----12-11-11-12-11-9-|
Db------------------------------|
Ab------------------------------|
Eb------------------------------|
Related for Electric Tears tab