Song name
# A B C D E F G H I J K L M N O P Q R S T U V W X Y Z

Bullet For My Valentine - Waking The Demon tab

modified the song so the whole thing could be played by 1 person
enjoy =D
Guitar 1 Left

TUNING
.D
.A
.F
.C
.G
.C

     PM PM PM PM      PM PM      PM PM            
     S  S  S  S  S  S S  S  S  S S  S  S  S S  S  
D||----------------------------------------------|
A||----------------------------------------------|
F||----------------------------------------------|
C||----------------------------------------------|
G||--------------5p-4-------7p-4-----------------|
C||--4--4--4--4-------4--4-------4--4--5p-4-7p-4-|


  PM PM PM PM      PM PM      PM PM        
  S  S  S  S  S  S S  S  S  S S  S  E  E   
------------------------------------------|
------------------------------------------|
------------------------------------------|
------------------------------------------|
--------------5p-4-------7p-4-------------|
--4--4--4--4-------4--4-------4--4--5--7--|


  PM PM PM PM      PM PM      PM PM            
  S  S  S  S  S  S S  S  S  S S  S  S  S S  S  
----------------------------------------------|
----------------------------------------------|
----------------------------------------------|
----------------------------------------------|
--------------5p-4-------7p-4-----------------|
--4--4--4--4-------4--4-------4--4--5p-4-7p-4-|


  PM PM PM PM      PM PM                      
  S  S  S  S  S  S S  S  S  S S  S S  S S  S  
---------------------------------------------|
---------------------------------------------|
---------------------------------------------|
-------------------------7p-4-5p-4-----------|
--------------5p-4-----------------7p-4-5p-4-|
--4--4--4--4-------4--4----------------------|


  PM PM PM PM      PM PM      PM PM            
  S  S  S  S  S  S S  S  S  S S  S  S  S S  S  
----------------------------------------------|
----------------------------------------------|
----------------------------------------------|
----------------------------------------------|
--------------5p-4-------7p-4-----------------|
--4--4--4--4-------4--4-------4--4--5p-4-7p-4-|


  PM PM PM PM      PM PM      PM PM        
  S  S  S  S  S  S S  S  S  S S  S  E  E   
------------------------------------------|
------------------------------------------|
------------------------------------------|
------------------------------------------|
--------------5p-4-------7p-4-------------|
--4--4--4--4-------4--4-------4--4--5--7--|


  PM PM PM PM      PM PM      PM PM            
  S  S  S  S  S  S S  S  S  S S  S  S  S S  S  
----------------------------------------------|
----------------------------------------------|
----------------------------------------------|
----------------------------------------------|
--------------5p-4-------7p-4-----------------|
--4--4--4--4-------4--4-------4--4--5p-4-7p-4-|


  PM PM PM PM      PM PM                      
  S  S  S  S  S  S S  S  S  S S  S S  S S  S  
---------------------------------------------|
---------------------------------------------|
---------------------------------------------|
-------------------------7p-4-5p-4-----------|
--------------5p-4-----------------7p-4-5p-4-|
--4--4--4--4-------4--4----------------------|


  PM PM PM PM      PM PM      PM PM            
  S  S  S  S  S  S S  S  S  S S  S  S  S S  S  
----------------------------------------------|
----------------------------------------------|
----------------------------------------------|
----------------------------------------------|
--------------5p-4-------7p-4-----------------|
--4--4--4--4-------4--4-------4--4--5p-4-7p-4-|


  PM PM PM PM      PM PM      PM PM        
  S  S  S  S  S  S S  S  S  S S  S  E  E   
------------------------------------------|
------------------------------------------|
------------------------------------------|
------------------------------------------|
--------------5p-4-------7p-4-------------|
--4--4--4--4-------4--4-------4--4--5--7--|


  PM PM PM PM      PM PM      PM PM            
  S  S  S  S  S  S S  S  S  S S  S  S  S S  S  
----------------------------------------------|
----------------------------------------------|
----------------------------------------------|
----------------------------------------------|
--------------5p-4-------7p-4-----------------|
--4--4--4--4-------4--4-------4--4--5p-4-7p-4-|


  PM PM PM PM      PM PM                      
  S  S  S  S  S  S S  S  S  S S  S S  S S  S  
---------------------------------------------|
---------------------------------------------|
---------------------------------------------|
-------------------------7p-4-5p-4-----------|
--------------5p-4-----------------7p-4-5p-4-|
--4--4--4--4-------4--4----------------------|


  PM PM PM PM      PM PM      PM PM            
  S  S  S  S  S  S S  S  S  S S  S  S  S S  S  
----------------------------------------------|
----------------------------------------------|
----------------------------------------------|
----------------------------------------------|
--------------5p-4-------7p-4-----------------|
--4--4--4--4-------4--4-------4--4--5p-4-7p-4-|


  PM PM PM PM      PM PM      PM PM        
  S  S  S  S  S  S S  S  S  S S  S  E  E   
------------------------------------------|
------------------------------------------|
------------------------------------------|
------------------------------------------|
--------------5p-4-------7p-4-------------|
--4--4--4--4-------4--4-------4--4--5--7--|


  PM PM PM PM      PM PM      PM PM            
  S  S  S  S  S  S S  S  S  S S  S  S  S S  S  
----------------------------------------------|
----------------------------------------------|
----------------------------------------------|
----------------------------------------------|
--------------5p-4-------7p-4-----------------|
--4--4--4--4-------4--4-------4--4--5p-4-7p-4-|


  PM PM PM PM      PM PM                      
  S  S  S  S  S  S S  S  S  S S  S S  S S  S  
---------------------------------------------|
---------------------------------------------|
---------------------------------------------|
-------------------------7p-4-5p-4-----------|
--------------5p-4-----------------7p-4-5p-4-|
--4--4--4--4-------4--4----------------------|


  PM PM PM PM      PM PM      PM PM            
  S  S  S  S  S  S S  S  S  S S  S  S  S S  S  
----------------------------------------------|
----------------------------------------------|
----------------------------------------------|
----------------------------------------------|
--------------5p-4-------7p-4-----------------|
--4--4--4--4-------4--4-------4--4--5p-4-7p-4-|


  PM PM PM PM      PM PM      PM PM        
  S  S  S  S  S  S S  S  S  S S  S  E  E   
------------------------------------------|
------------------------------------------|
------------------------------------------|
------------------------------------------|
--------------5p-4-------7p-4-------------|
--4--4--4--4-------4--4-------4--4--5--7--|


  PM PM PM PM      PM PM      PM PM            
  S  S  S  S  S  S S  S  S  S S  S  S  S S  S  
----------------------------------------------|
----------------------------------------------|
----------------------------------------------|
----------------------------------------------|
--------------5p-4-------7p-4-----------------|
--4--4--4--4-------4--4-------4--4--5p-4-7p-4-|


  PM PM PM PM      PM PM                                          
  S  S  S  S  S  S S  S  S  S S  S S  S S  S    W                 
---------------------------------------------|-------------------|
---------------------------------------------|-------------------|
---------------------------------------------|-------------------|
-------------------------7p-4-5p-4-----------|--0----------------|
--------------5p-4-----------------7p-4-5p-4-|--0----------------|
--4--4--4--4-------4--4----------------------|--0----------------|


  S  S S  S S  S S  S S  S S  S S  S S  S  
------------------------------------------|
------------------------------------------|
------------------------------------------|
--7p-4-5p-4-----------9p-6-7p-6-----------|
------------7p-4-5p-4-----------9p-6-7p-6-|
------------------------------------------|


  PM PM PM PM      PM PM      PM PM            
  S  S  S  S  S  S S  S  S  S S  S  S  S S  S  
----------------------------------------------|
----------------------------------------------|
----------------------------------------------|
----------------------------------------------|
--------------5p-4-------7p-4-----------------|
--4--4--4--4-------4--4-------4--4--5p-4-7p-4-|


  PM PM PM PM      PM PM      PM PM        
  S  S  S  S  S  S S  S  S  S S  S  E  E   
------------------------------------------|
------------------------------------------|
------------------------------------------|
------------------------------------------|
--------------5p-4-------7p-4-------------|
--4--4--4--4-------4--4-------4--4--5--7--|


  PM PM PM PM      PM PM      PM PM            
  S  S  S  S  S  S S  S  S  S S  S  S  S S  S  
----------------------------------------------|
----------------------------------------------|
----------------------------------------------|
----------------------------------------------|
--------------5p-4-------7p-4-----------------|
--4--4--4--4-------4--4-------4--4--5p-4-7p-4-|


  PM PM PM PM      PM PM                      
  S  S  S  S  S  S S  S  S  S S  S S  S S  S  
---------------------------------------------|
---------------------------------------------|
---------------------------------------------|
-------------------------7p-4-5p-4-----------|
--------------5p-4-----------------7p-4-5p-4-|
--4--4--4--4-------4--4----------------------|


  PM PM PM PM      PM PM      PM PM            
  S  S  S  S  S  S S  S  S  S S  S  S  S S  S  
----------------------------------------------|
----------------------------------------------|
----------------------------------------------|
----------------------------------------------|
--------------5p-4-------7p-4-----------------|
--4--4--4--4-------4--4-------4--4--5p-4-7p-4-|


  PM PM PM PM      PM PM      PM PM        
  S  S  S  S  S  S S  S  S  S S  S  E  E   
------------------------------------------|
------------------------------------------|
------------------------------------------|
------------------------------------------|
--------------5p-4-------7p-4-------------|
--4--4--4--4-------4--4-------4--4--5--7--|


  PM PM PM PM      PM PM      PM PM            
  S  S  S  S  S  S S  S  S  S S  S  S  S S  S  
----------------------------------------------|
----------------------------------------------|
----------------------------------------------|
----------------------------------------------|
--------------5p-4-------7p-4-----------------|
--4--4--4--4-------4--4-------4--4--5p-4-7p-4-|


  PM PM PM PM      PM PM                      
  S  S  S  S  S  S S  S  S  S S  S S  S S  S  
---------------------------------------------|
---------------------------------------------|
---------------------------------------------|
-------------------------7p-4-5p-4-----------|
--------------5p-4-----------------7p-4-5p-4-|
--4--4--4--4-------4--4----------------------|


                        PM PM PM PM                             
  S  S S E.  S  S S E.  S  S  S  S     S S  S S Q    Q    Q     
------------------------------------|--------------------------|
------------------------------------|--------------------------|
------------------------------------|--------------------------|
---------4----------4---------------|-----------4----0----2----|
--5p-4---4---5p-4---4---------------|----5p-4---4----0----2----|
-------7-4--------7-4---4--4--4--4--|---------7-4----0----2----|


                        PM PM PM PM                               
  S  S S E.  S  S S E.  S  S  S  S     S S  S S Q     Q    Q      
------------------------------------|----------------------------|
------------------------------------|----------------------------|
------------------------------------|----------------------------|
---------4----------4---------------|-----------4----/7----6~----|
--5p-4---4---5p-4---4---------------|----5p-4---4----------------|
-------7-4--------7-4---4--4--4--4--|---------7-4----------------|


                        PM PM PM PM                             
  S  S S E.  S  S S E.  S  S  S  S     S S  S S Q    Q    Q     
------------------------------------|--------------------------|
------------------------------------|--------------------------|
------------------------------------|--------------------------|
---------4----------4---------------|-----------4----0----2----|
--5p-4---4---5p-4---4---------------|----5p-4---4----0----2----|
-------7-4--------7-4---4--4--4--4--|---------7-4----0----2----|


                        PM PM PM PM                               
  S  S S E.  S  S S E.  S  S  S  S     S S  S S Q     Q    Q      
------------------------------------|----------------------------|
------------------------------------|----------------------------|
------------------------------------|----------------------------|
---------4----------4---------------|-----------4----/7----6~----|
--5p-4---4---5p-4---4---------------|----5p-4---4----------------|
-------7-4--------7-4---4--4--4--4--|---------7-4----------------|


  S S S S S S S S S S S S S S S S    S S S S S S S S S S S S S S S S  
----------------------------------|----------------------------------|
----------------------------------|----------------------------------|
----------------------------------|----------------------------------|
----------------------------------|----------------------------------|
--5-5-5-5-5-5-5-5-5-5-5-5-5-5-5-5-|--7-7-7-7-7-7-7-7-7-7-7-7-7-7-7-7-|
----------------------------------|----------------------------------|


  S S S S S S S S S S S S S S S S  
----------------------------------|
----------------------------------|
----------------------------------|
----------------------------------|
--9-9-9-9-9-9-9-9-9-9-9-9-9-9-9-9-|
----------------------------------|


   S  S  S  S  S  S  S  S  S  S  S  S S S S S  
----------------------------------------------|
----------------------------------------------|
----------------------------------------------|
----------------------------------------------|
--12-12-12-12-12-12-12-12-11-11-11-11-9-9-9-9-|
----------------------------------------------|


  S S S S S S S S S S S S S S S S    S S S S S S S S S S S S S S S S  
----------------------------------|----------------------------------|
----------------------------------|----------------------------------|
----------------------------------|----------------------------------|
----------------------------------|----------------------------------|
--5-5-5-5-5-5-5-5-5-5-5-5-5-5-5-5-|--7-7-7-7-7-7-7-7-7-7-7-7-7-7-7-7-|
----------------------------------|----------------------------------|


                                                        W     
  S S S S S S S S S S S S S S S S    Q     Q    E  E    Q     
----------------------------------|--------------------------|
----------------------------------|--------------------------|
----------------------------------|--------------------------|
----------------------------------|--------------------------|
--9-9-9-9-9-9-9-9-9-9-9-9-9-9-9-9-|--9\----------------------|
----------------------------------|----------------0--<>3----|


  PM PM PM PM      PM PM      PM PM            
  S  S  S  S  S  S S  S  S  S S  S  S  S S  S  
----------------------------------------------|
----------------------------------------------|
----------------------------------------------|
----------------------------------------------|
--------------5p-4-------7p-4-----------------|
--4--4--4--4-------4--4-------4--4--5p-4-7p-4-|


  PM PM PM PM      PM PM      PM PM        
  S  S  S  S  S  S S  S  S  S S  S  E  E   
------------------------------------------|
------------------------------------------|
------------------------------------------|
------------------------------------------|
--------------5p-4-------7p-4-------------|
--4--4--4--4-------4--4-------4--4--5--7--|


  PM PM PM PM      PM PM      PM PM            
  S  S  S  S  S  S S  S  S  S S  S  S  S S  S  
----------------------------------------------|
----------------------------------------------|
----------------------------------------------|
----------------------------------------------|
--------------5p-4-------7p-4-----------------|
--4--4--4--4-------4--4-------4--4--5p-4-7p-4-|


  PM PM PM PM      PM PM                      
  S  S  S  S  S  S S  S  S  S S  S S  S S  S  
---------------------------------------------|
---------------------------------------------|
---------------------------------------------|
-------------------------7p-4-5p-4-----------|
--------------5p-4-----------------7p-4-5p-4-|
--4--4--4--4-------4--4----------------------|


  PM PM PM PM      PM PM      PM PM            
  S  S  S  S  S  S S  S  S  S S  S  S  S S  S  
----------------------------------------------|
----------------------------------------------|
----------------------------------------------|
----------------------------------------------|
--------------5p-4-------7p-4-----------------|
--4--4--4--4-------4--4-------4--4--5p-4-7p-4-|


  PM PM PM PM      PM PM      PM PM        
  S  S  S  S  S  S S  S  S  S S  S  E  E   
------------------------------------------|
------------------------------------------|
------------------------------------------|
------------------------------------------|
--------------5p-4-------7p-4-------------|
--4--4--4--4-------4--4-------4--4--5--7--|


  PM PM PM PM      PM PM      PM PM            
  S  S  S  S  S  S S  S  S  S S  S  S  S S  S  
----------------------------------------------|
----------------------------------------------|
----------------------------------------------|
----------------------------------------------|
--------------5p-4-------7p-4-----------------|
--4--4--4--4-------4--4-------4--4--5p-4-7p-4-|


  PM PM PM PM      PM PM                      
  S  S  S  S  S  S S  S  S  S S  S S  S S  S  
---------------------------------------------|
---------------------------------------------|
---------------------------------------------|
-------------------------7p-4-5p-4-----------|
--------------5p-4-----------------7p-4-5p-4-|
--4--4--4--4-------4--4----------------------|


                        PM PM PM PM                             
  S  S S E.  S  S S E.  S  S  S  S     S S  S S Q    Q    Q     
------------------------------------|--------------------------|
------------------------------------|--------------------------|
------------------------------------|--------------------------|
---------4----------4---------------|-----------4----0----2----|
--5p-4---4---5p-4---4---------------|----5p-4---4----0----2----|
-------7-4--------7-4---4--4--4--4--|---------7-4----0----2----|


                        PM PM PM PM                               
  S  S S E.  S  S S E.  S  S  S  S     S S  S S Q     Q    Q      
------------------------------------|----------------------------|
------------------------------------|----------------------------|
------------------------------------|----------------------------|
---------4----------4---------------|-----------4----/7----6~----|
--5p-4---4---5p-4---4---------------|----5p-4---4----------------|
-------7-4--------7-4---4--4--4--4--|---------7-4----------------|


                        PM PM PM PM                             
  S  S S E.  S  S S E.  S  S  S  S     S S  S S Q    Q    Q     
------------------------------------|--------------------------|
------------------------------------|--------------------------|
------------------------------------|--------------------------|
---------4----------4---------------|-----------4----0----2----|
--5p-4---4---5p-4---4---------------|----5p-4---4----0----2----|
-------7-4--------7-4---4--4--4--4--|---------7-4----0----2----|


                        PM PM PM PM                               
  S  S S E.  S  S S E.  S  S  S  S     S S  S S Q     Q    Q      
------------------------------------|----------------------------|
------------------------------------|----------------------------|
------------------------------------|----------------------------|
---------4----------4---------------|-----------4----/7----6~----|
--5p-4---4---5p-4---4---------------|----5p-4---4----------------|
-------7-4--------7-4---4--4--4--4--|---------7-4----------------|


  S S S S S S S S S S S S S S S S    S S S S S S S S S S S S S S S S  
----------------------------------|----------------------------------|
----------------------------------|----------------------------------|
----------------------------------|----------------------------------|
----------------------------------|----------------------------------|
--5-5-5-5-5-5-5-5-5-5-5-5-5-5-5-5-|--7-7-7-7-7-7-7-7-7-7-7-7-7-7-7-7-|
----------------------------------|----------------------------------|


  S S S S S S S S S S S S S S S S  
----------------------------------|
----------------------------------|
----------------------------------|
----------------------------------|
--9-9-9-9-9-9-9-9-9-9-9-9-9-9-9-9-|
----------------------------------|


   S  S  S  S  S  S  S  S  S  S  S  S S S S S  
----------------------------------------------|
----------------------------------------------|
----------------------------------------------|
----------------------------------------------|
--12-12-12-12-12-12-12-12-11-11-11-11-9-9-9-9-|
----------------------------------------------|


  S S S S S S S S S S S S S S S S    S S S S S S S S S S S S S S S S  
----------------------------------|----------------------------------|
----------------------------------|----------------------------------|
----------------------------------|----------------------------------|
----------------------------------|----------------------------------|
--5-5-5-5-5-5-5-5-5-5-5-5-5-5-5-5-|--7-7-7-7-7-7-7-7-7-7-7-7-7-7-7-7-|
----------------------------------|----------------------------------|


  S S S S S S S S S S S S S S S S     S  S  S  S  S  S  S  S  S S S S S S S S  
----------------------------------|-------------------------------------------|
----------------------------------|-------------------------------------------|
----------------------------------|-------------------------------------------|
----------------------------------|-------------------------------------------|
--9-9-9-9-9-9-9-9-9-9-9-9-9-9-9-9-|-------------------------------------------|
----------------------------------|--12-12-12-12-12-12-11-11-10-9-8-7-6-5-5-4-|


  Q.       E   E   E   E   E      Q.       E   E   E   E   E    
-------------------------------|-------------------------------|
-------------------------------|-------------------------------|
---------/14--13------14-------|---------/14--13------14--11~--|
--0---------------14------14~--|--L---------------14-----------|
--0----------------------------|-------------------------------|
--0----------------------------|-------------------------------|


  Q.       E   E   E   E   E      E   E   E   E   E   E   E   E   
------------------------------|----------------------------------|
------------------------------|----------------------------------|
--L------/14--13------14------|--16------14------13------14------|
------------------14------14--|------14------14------14------14--|
------------------------------|----------------------------------|
------------------------------|----------------------------------|


  Q.       E   E   E   E   E      Q.       E   E   E   E   E    
-------------------------------|-------------------------------|
-------------------------------|-------------------------------|
---------/14--13------14-------|---------/14--13------14--11~--|
--L---------------14------14~--|--L---------------14-----------|
-------------------------------|-------------------------------|
-------------------------------|-------------------------------|


                                                                W   
  Q.       E   E   E   E   E      E   E   E   E   E   E   E     E   
------------------------------|------------------------------------|
------------------------------|------------------------------------|
--L------/14--13------14------|--16------14------13------14--<>14--|
------------------14------14--|------14------14------14------------|
------------------------------|------------------------------------|
------------------------------|------------------------------------|


  E  E  E    E   E   E   E   E      Q.       E   E   E   E   E    
---------------------------------|-------------------------------|
---------------------------------|-------------------------------|
--L--L--L--/14--13------14-------|---------/14--13------14--11~--|
--------------------14------14~--|--L---------------14-----------|
---------------------------------|-------------------------------|
---------------------------------|-------------------------------|


  Q.       E   E   E   E   E      E   E   E   E   E   E   E   E   
------------------------------|----------------------------------|
------------------------------|----------------------------------|
--L------/14--13------14------|--16------14------13------14------|
------------------14------14--|------14------14------14------14--|
------------------------------|----------------------------------|
------------------------------|----------------------------------|


  Q.       E   E   E   E   E      Q.       E   E   E   E   E    
-------------------------------|-------------------------------|
-------------------------------|-------------------------------|
---------/14--13------14-------|---------/14--13------14--11~--|
--L---------------14------14~--|--L---------------14-----------|
-------------------------------|-------------------------------|
-------------------------------|-------------------------------|


  Q.       E   E   E   E   E      E   E   E   E   E   E   E   E   
------------------------------|----------------------------------|
------------------------------|----------------------------------|
--L------/14--13------14------|--16------14------13------14------|
------------------14------14--|------14------14------14------14--|
------------------------------|----------------------------------|
------------------------------|----------------------------------|


                    PM PM PM PM                      PM PM PM PM  
  E  E  E  E  E  E  S  S  S  S     E  E  E  E  E  E  S  S  S  S   
--------------------------------|--------------------------------|
--------------------------------|--------------------------------|
--------------------------------|--------------------------------|
--4-----------------------------|--------------------------------|
--4-----------------4--4--4--4--|--4-----------------4--4--4--4--|
--4-----------------4--4--4--4--|--4-----------------4--4--4--4--|


                    PM PM PM PM                      PM PM PM PM  
  E  E  E  E  E  E  S  S  S  S     E  E  E  E  E  E  S  S  S  S   
--------------------------------|--------------------------------|
--------------------------------|--------------------------------|
--------------------------------|--------------------------------|
--------------------------------|--------------------------------|
--4-----------------4--4--4--4--|--4-----------------4--4--4--4--|
--4-----------------4--4--4--4--|--4-----------------4--4--4--4--|


  PM PM PM PM PM PM PM PM PM PM PM PM PM PM PM PM  
  S  S  S  S  S  S  S  S  S  S  S  S  S  S  S  S   
--------------------------------------------------|
--------------------------------------------------|
--------------------------------------------------|
--------------------------------------------------|
--5--4--4--4--4--7--4--4--4--4--4--4--5--4--4--4--|
--5--4--4--4--4--7--4--4--4--4--4--4--5--4--4--4--|


  PM PM PM PM PM PM PM PM PM PM PM PM PM PM PM PM  
  S  S  S  S  S  S  S  S  S  S  S  S  S  S  S  S   
--------------------------------------------------|
--------------------------------------------------|
--------------------------------------------------|
--------------------------------------------------|
--5--4--4--4--4--7--4--4--4--4--4--4--5--4--4--4--|
--5--4--4--4--4--7--4--4--4--4--4--4--5--4--4--4--|


  S S S S S S S S S S S  S   S   S   S   S     S S S S S S S S E  E  E  E   
--------------------------------------------|------------------------------|
--------------------------------------------|------------------------------|
--------------------------------------------|------------------------------|
--------------------------------------------|------------------4-----------|
------------------------(4)-(5)-(4)-(4)-(4)-|--5-4-4-5-4-4-4-4-4-----------|
--5-4-4-4-4-7-4-4-4-4-4--4---5---4---4---4--|--5-4-4-5-4-4-4-4-4-----------|


  PM PM PM PM      PM PM      PM PM            
  S  S  S  S  S  S S  S  S  S S  S  S  S S  S  
----------------------------------------------|
----------------------------------------------|
----------------------------------------------|
----------------------------------------------|
--------------5p-4-------7p-4-----------------|
--4--4--4--4-------4--4-------4--4--5p-4-7p-4-|


  PM PM PM PM      PM PM      PM PM        
  S  S  S  S  S  S S  S  S  S S  S  E  E   
------------------------------------------|
------------------------------------------|
------------------------------------------|
------------------------------------------|
--------------5p-4-------7p-4-------------|
--4--4--4--4-------4--4-------4--4--5--7--|


  PM PM PM PM      PM PM      PM PM            
  S  S  S  S  S  S S  S  S  S S  S  S  S S  S  
----------------------------------------------|
----------------------------------------------|
----------------------------------------------|
----------------------------------------------|
--------------5p-4-------7p-4-----------------|
--4--4--4--4-------4--4-------4--4--5p-4-7p-4-|


  PM PM PM PM      PM PM                      
  S  S  S  S  S  S S  S  S  S S  S S  S S  S  
---------------------------------------------|
---------------------------------------------|
---------------------------------------------|
-------------------------7p-4-5p-4-----------|
--------------5p-4-----------------7p-4-5p-4-|
--4--4--4--4-------4--4----------------------|


  PM PM PM PM      PM PM      PM PM            
  S  S  S  S  S  S S  S  S  S S  S  S  S S  S  
----------------------------------------------|
----------------------------------------------|
----------------------------------------------|
----------------------------------------------|
--------------5p-4-------7p-4-----------------|
--4--4--4--4-------4--4-------4--4--5p-4-7p-4-|


  PM PM PM PM      PM PM      PM PM        
  S  S  S  S  S  S S  S  S  S S  S  E  E   
------------------------------------------|
------------------------------------------|
------------------------------------------|
------------------------------------------|
--------------5p-4-------7p-4-------------|
--4--4--4--4-------4--4-------4--4--5--7--|


  PM PM PM PM      PM PM      PM PM            
  S  S  S  S  S  S S  S  S  S S  S  S  S S  S  
----------------------------------------------|
----------------------------------------------|
----------------------------------------------|
----------------------------------------------|
--------------5p-4-------7p-4-----------------|
--4--4--4--4-------4--4-------4--4--5p-4-7p-4-|


  PM PM PM PM      PM PM                      
  S  S  S  S  S  S S  S  S  S S  S S  S S  S  
---------------------------------------------|
---------------------------------------------|
---------------------------------------------|
-------------------------7p-4-5p-4-----------|
--------------5p-4-----------------7p-4-5p-4-|
--4--4--4--4-------4--4----------------------|


  S S S S S S S S S S S S S S S S    S S S S S S S S S S S S S S S S  
----------------------------------|----------------------------------|
----------------------------------|----------------------------------|
----------------------------------|----------------------------------|
----------------------------------|----------------------------------|
--5-5-5-5-5-5-5-5-5-5-5-5-5-5-5-5-|--7-7-7-7-7-7-7-7-7-7-7-7-7-7-7-7-|
----------------------------------|----------------------------------|


  S S S S S S S S S S S S S S S S    S S S S S S S S S S S S S S S S  
----------------------------------|----------------------------------|
----------------------------------|----------------------------------|
----------------------------------|----------------------------------|
----------------------------------|----------------------------------|
--9-9-9-9-9-9-9-9-9-9-9-9-9-9-9-9-|--7-7-7-7-7-7-7-7-7-7-7-7-7-7-7-7-|
----------------------------------|----------------------------------|


  S S S S S S S S S S S S S S S S    S S S S S S S S S S S S S S S S  
----------------------------------|----------------------------------|
----------------------------------|----------------------------------|
----------------------------------|----------------------------------|
----------------------------------|----------------------------------|
--5-5-5-5-5-5-5-5-5-5-5-5-5-5-5-5-|--7-7-7-7-7-7-7-7-7-7-7-7-7-7-7-7-|
----------------------------------|----------------------------------|


  S S S S S S S S S S S S S S S S     S  S  S  S  S  S  S  S  S S S S S S S S  
----------------------------------|-------------------------------------------|
----------------------------------|-------------------------------------------|
----------------------------------|-------------------------------------------|
----------------------------------|-------------------------------------------|
--9-9-9-9-9-9-9-9-9-9-9-9-9-9-9-9-|-------------------------------------------|
----------------------------------|--12-12-12-12-12-12-11-11-10-9-8-7-6-5-5-4-|


  Q.       E   E   E   E   E      Q.       E   E   E   E   E    
-------------------------------|-------------------------------|
-------------------------------|-------------------------------|
---------/14--13------14-------|---------/14--13------14--11~--|
--0---------------14------14~--|--L---------------14-----------|
--0----------------------------|-------------------------------|
--0----------------------------|-------------------------------|


  Q.       E   E   E   E   E      E   E   E   E   E   E   E   E   
------------------------------|----------------------------------|
------------------------------|----------------------------------|
--L------/14--13------14------|--16------14------13------14------|
------------------14------14--|------14------14------14------14--|
------------------------------|----------------------------------|
------------------------------|----------------------------------|


  Q.       E   E   E   E   E      Q.       E   E   E   E   E    
-------------------------------|-------------------------------|
-------------------------------|-------------------------------|
---------/14--13------14-------|---------/14--13------14--11~--|
--L---------------14------14~--|--L---------------14-----------|
-------------------------------|-------------------------------|
-------------------------------|-------------------------------|


                                                                W   
  Q.       E   E   E   E   E      E   E   E   E   E   E   E     E   
------------------------------|------------------------------------|
------------------------------|------------------------------------|
--L------/14--13------14------|--16------14------13------14--<>14--|
------------------14------14--|------14------14------14------------|
------------------------------|------------------------------------|
------------------------------|------------------------------------|


  E  E  E    E   E   E   E   E      Q.       E   E   E   E   E    
---------------------------------|-------------------------------|
---------------------------------|-------------------------------|
--L--L--L--/14--13------14-------|---------/14--13------14--11~--|
--------------------14------14~--|--L---------------14-----------|
---------------------------------|-------------------------------|
---------------------------------|-------------------------------|


  Q.       E   E   E   E   E      E   E   E   E   E   E   E   E   
------------------------------|----------------------------------|
------------------------------|----------------------------------|
--L------/14--13------14------|--16------14------13------14------|
------------------14------14--|------14------14------14------14--|
------------------------------|----------------------------------|
------------------------------|----------------------------------|


  Q.       E   E   E   E   E      Q.       E   E   E   E   E    
-------------------------------|-------------------------------|
-------------------------------|-------------------------------|
---------/14--13------14-------|---------/14--13------14--11~--|
--L---------------14------14~--|--L---------------14-----------|
-------------------------------|-------------------------------|
-------------------------------|-------------------------------|


  Q.       E   E   E   E   E      E   E   E   E   E   E   E   E   
------------------------------|----------------------------------|
------------------------------|----------------------------------|
--L------/14--13------14------|--16------14------13------14------|
------------------14------14--|------14------14------14------14--|
------------------------------|----------------------------------|
------------------------------|----------------------------------|


  PM PM PM PM      PM PM      PM PM            
  S  S  S  S  S  S S  S  S  S S  S  S  S S  S  
----------------------------------------------|
----------------------------------------------|
----------------------------------------------|
----------------------------------------------|
--------------5p-4-------7p-4-----------------|
--4--4--4--4-------4--4-------4--4--5p-4-7p-4-|


  PM PM PM PM      PM PM      PM PM        
  S  S  S  S  S  S S  S  S  S S  S  E  E   
------------------------------------------|
------------------------------------------|
------------------------------------------|
------------------------------------------|
--------------5p-4-------7p-4-------------|
--4--4--4--4-------4--4-------4--4--5--7--|


  PM PM PM PM      PM PM      PM PM            
  S  S  S  S  S  S S  S  S  S S  S  S  S S  S  
----------------------------------------------|
----------------------------------------------|
----------------------------------------------|
----------------------------------------------|
--------------5p-4-------7p-4-----------------|
--4--4--4--4-------4--4-------4--4--5p-4-7p-4-|


  PM PM PM PM      PM PM                                             
  S  S  S  S  S  S S  S  S  S S  S S  S S  S    S  S S  S S  S S  S  
---------------------------------------------|----------------------|
---------------------------------------------|----------------------|
---------------------------------------------|----------------------|
-------------------------7p-4-5p-4-----------|--9p-6-7p-6-----------|
--------------5p-4-----------------7p-4-5p-4-|------------9p-6-7p-6-|
--4--4--4--4-------4--4----------------------|----------------------|


  Q    E  E  E  E  E  E     S S S E  E  Q    Q    S   
-------------------------|--------------------------||
-------------------------|--------------------------||
-------------------------|--------------------------||
--4----------------------|--4-4-4-4-----------------||
--4----------------------|--4-4-4-4-----------------||
--4----------------------|--4-4-4-4-----------------||




Duration Legend
---------------
W - whole
H - half
Q - quarter
E - 8th
S - 16th
T - 32nd
X - 64th
. - note dotted
|-n-|  - n-tuplets


Tablature Legend
----------------
L - tied note
x - dead note
g - grace note
(n) - ghost note
> - accentuded note
NH - natural harmonic
AH - artificial harmonic
TH - tapped harmonic
SH - semi harmonic
PH - pitch harmonic
h - hammer on
p - pull off
b - bend
br - bendRelease
pb - preBend
pbr - preBendRelease
brb - bendReleaseBend
\n/ - tremolo bar dip
\n - tremolo bar dive
-/n - tremolo bar Release up
/n\ - tremolo bar inverted dip
/n - tremolo bar return
-\n - tremolo bar Release down
S - shift slide
s - legato slide
/ -  slide into from below or out of upwards
\ -  slide into from above or out of downwards
~ - vibrato
W - wide vibrato
tr - trill
TP - tremolo picking
T - tapping
S - slap
P - pop
< - fade in
^ - brush up
v - brush down

Tap to rate this tab
# A B C D E F G H I J K L M N O P Q R S T U V W X Y Z