Song name
# A B C D E F G H I J K L M N O P Q R S T U V W X Y Z

Cathy Davey - Dog tab

L.A RAI

Dog-Cathy Davey
Album:The Nameless

Verse:

Your name is gold with diamonds underneath
My name is coal with cheapy copper leaf

    B A G#       A G# F#
And yeah we were doomed, we were doomed, we were doomed


E-----------------------------------------|
B-----------------------------------------|
G-----------------------------------------|
D-----------------------------------------|
A-------------2-2---------0-0-2-2---------|
E-0-0-0-0-4-4-----2-2-2-2-----------------|

Careful now, just a little rock

Your head is open and lets in all the light
Now would you throw your illumination all over this hot head of mine
Yeah we were doomed, but doom had it's own relief
Build up, build up a wall to set you free

Chorus:

E--5----4----4---2-----------|
B--5----5----4---4-----------|
G--6----6----5---4-----------|
D--7----6----6---4-----------|
A--7----4----6---2-----------|
E--5---------4---------------|


Oh, and it go
Oh, and it go
Oh, and it go
Like a dog
Or a rat
Like a dog

Verse 2: (same as before)

My arms are open for something I don' t want to think
And will you think they'd invent some puppet to cradle your heart as it breaks
Could you be a pet and just squeeze one out of your eye
I can see you through the waterfall, to me you look perfectly dry

The outro is a variation of the notes played in the verse
Tap to rate this tab
 
# A B C D E F G H I J K L M N O P Q R S T U V W X Y Z