Song name
# A B C D E F G H I J K L M N O P Q R S T U V W X Y Z

Chevelle - Closure tab

Help us improve GuitareTab! Take a short survey!
Intro
|-------------------------------------------|  x6
|-------------------------------------------|
|7-x-x-x-x-10-x-x-x-x-9-x-x-x-x 10/9/10/7---|
|-------------------------------------------|
|5-x-x-x-x-8--x-x-x-x-7-x-x-x-x--8/7/8/5----|
|-------------------------------------------|


    Bridge
|-------------------------------------------------|
|-------------------------------------------------|
|-------------------------------------------------|
|-3--3-5-3-0--3--3-5-3-0--5--5-7-5-0--5--5-7-5-0--|
|-3--3-5-3-0--3--3-5-3-0--5--5-7-5-0--5--5-7-5-0--|
|-3--3-5-3-0--3--3-5-3-0--5--5-7-5-0--5--5-7-5-0--|


   1st chorus
|---------------------------------------|----------------|
|---------------------------------------|----------------|
|--10-----------------10----------------|----------------|
|---------------------10----------------|--0-3---0-3--0--|
|--8------------------8-----------------|--0-3---0-3--0--|
|--0------------------8-----------------|--0-3---0-3--0--|

    Verse
|-------------------------------------------|  x6
|-------------------------------------------|
|7-x-x-x-x-10-x-x-x-x-9-x-x-x-x 10/9/10/7---|
|-------------------------------------------|
|5-x-x-x-x-8--x-x-x-x-7-x-x-x-x--8/7/8/5----|
|0---------0----------0----------0-0-0-0----|

     Bridge
|-------------------------------------------------|
|-------------------------------------------------|
|-------------------------------------------------|
|-3--3-5-3-0--3--3-5-3-0--5--5-7-5-0--5--5-7-5-0--|
|-3--3-5-3-0--3--3-5-3-0--5--5-7-5-0--5--5-7-5-0--|
|-3--3-5-3-0--3--3-5-3-0--5--5-7-5-0--5--5-7-5-0--|

   2nd Chorus
|------------------------------------------------------------|
|------------------------------------------------------------|
|--10----------------10--------------------------------------|
|--------------------10--------------------0-3--0-3---0------|
|--8-------7h8-7-----8---------------------0-3--0-3---0------|
|--0--------------7--8---------------------0-3--0-3---0------|

    Distorted Verse
|----------------------------------------|-----------|
|----------------------------------------|-----------|
|7-x-x-x-x-10-x-x-x-x-9-x-x-x-x10/9/10/-7|10-12-12-12|
|----------------------------------------|-----------|
|5-x-x-x-x-8--x-x-x-x-7-x-x-x-x-8/7/8---5|8-10-10-10-|
|0---------0----------0---------0-0-0---0|-----------|
                                        pay this the 6th time

    Distorted Bridge
|-------------------------------------------------|
|-------------------------------------------------|
|-------------------------------------------------|
|-3--3-5-3-0--3--3-5-3-0--5--5-7-5-0--5--5-7-5-0--|
|-3--3-5-3-0--3--3-5-3-0--5--5-7-5-0--5--5-7-5-0--|
|-3--3-5-3-0--3--3-5-3-0--5--5-7-5-0--5--5-7-5-0--|

      Distorted Chorus
|------------------------------------------------------------|
|------------------------------------------------------------|
|--10----------------10--------------------------------------|
|--------------------10--------------------0-3--0-3---0------|
|--8-------7h8-7-----8---------------------0-3--0-3---0------|
|--0--------------7--8---------------------0-3--0-3---0------|


Outro

|----------------------------------------------|
|----------------------------------------------|
|-10-10-10-9-9-9--7----------------------------|
|--------------------7-7--7-7--3-3-3-3---------|
|-8--8--8--7-7-7--5--7-7--7-7--3-3-3-3---------|
|--------------------7-7--7-7--3-3-3-3--0-0-0-0|
Related for Closure tab