Song name
# A B C D E F G H I J K L M N O P Q R S T U V W X Y Z

Chevelle - Comfortable Liar tab

Chevelle - Comfortable Liar

Tuning - C# F# B E G# C#

Key:  . - Palm Mute    P.S. - Pick scrape
     LR - Let ring
     () - Ghost Note

This is from their Live from the Norva DVD.  There is absolutely no question that this
is perfect.  Even the book is wrong on this one!  Watch the DVD and you will see that
the weird "077" chord is right on!  Sounds perfect!

Intro
    P.S.
C#|-------------------------------------------------------------------|
G#|-------------------------------------------------------------------|
E |-------------------------------------------------------------------|
B |-------6-7-6-2--2-22--6-7-6-----2----6-7-6-2--2-22-6-7-6-----------|
F#|-------6-7-6-2--2-22--6-7-6-2---2----6-7-6-2--2-22-6-7-6-(2)(2)(2)-|
C#|-xxxxx-4-0-4-0--0-00--4-0-4-0---0----4-0-4-0--0-00-4-0-4--0--0--0--|
                               .   LR                        .  .  .

C#|-------------------------------------------------------------|
G#|-------------------------------------------------------------|
E |-------------------------------------------------------------|
B |-6-7-6-2--2-22--6-7-6-2---2----6-7-6-2--2-22-6-7-6-----2-----|
F#|-6-7-6-2--2-22--6-7-6-2---2----6-7-6-2--2-22-6-7-6--2--2-----|
C#|-4-0-4-0--0-00--4-0-4-0---0----4-0-4-0--0-00-4-0-4--0--0-----|
                         .                             .  LR 

VERSE
       7x              1x             3x             1x
C#|--------------|-------------|---------------|------------|
G#|--------------|-------------|---------------|------------|
E |--------------|-------------|---------------|------------|
B |-6-7-6-2--2-22|-6-7-6-------|-6-7-6-2--2-22-|6-7-6--2-2--|
F#|-6-7-6-2--2-22|-6-7-6-2-2-2-|-6-7-6-2--2-22-|6-7-6--2-2--|
C#|-4-0-4-0--0-00|-4-0-4-0-0-0-|-4-0-4-0--0-00-|4-0-4--0-0--|
                         . . .

CHORUS
So Heal............Your fear........
C#|----------------------------------------------|
G#|----------------------------------------------|
E |----------------------------------------------|
B |-2---------6---------2-------6----------------|
F#|-2---------6---------2-------6-----xxxxxxxxx--|
C#|-0---------4---------0-------4-----xxxxxxxxx--|
                                      P.S.

VERSE
       7x              1x             3x             1x
C#|--------------|-------------|---------------|------------|
G#|--------------|-------------|---------------|------------|
E |--------------|-------------|---------------|------------|
B |-6-7-6-2--2-22|-6-7-6-------|-6-7-6-2--2-22-|6-7-6--2-2--|
F#|-6-7-6-2--2-22|-6-7-6-2-2-2-|-6-7-6-2--2-22-|6-7-6--2-2--|
C#|-4-0-4-0--0-00|-4-0-4-0-0-0-|-4-0-4-0--0-00-|4-0-4--0-0--|

CHORUS
So heal................your fear..........
C#|---------------------------------------------------|
G#|---------------------------------------------------|
E |---------------------------------------------------|
B |-2--2--2--2--2--2--2--2--6--6--6--6--6--6--6--6----|   2x
F#|-2--2--2--2--2--2--2--2--6--6--6--6--6--6--6--6----|
C#|-000000000000000000000000400400400400400400400400--|
     .. .. .. .. .. .. .. .. .. .. .. .. .. .. .. ..

  ....comfortable liar......liar.....liar.....liar.....liar....cold....
C#|----------------------------------------------------------------------|
G#|----------------------------------------------------------------------|
E |----------------------------------------------------------------------|
B |---------------2---------6---------2-------6--------2-------6-----2---|
F#|---------------2---------6---------2-------6--------2-------6-----2---|
C#|---------------0---------4---------0-------4--------0-------4-----0---|
                  LR        LR        LR      LR       LR      LR    LR

       7x              1x
C#|---------------|----------------|
G#|---------------|----------------|
E |---------------|----------------|
B |-6-7-6-2--2-22-|-6-7-6-2--------|
F#|-6-7-6-2--2-22-|-6-7-6-2--------|
C#|-4-0-4-0--0-00-|-4-0-4-0--------|

You comfortable LIAR!..........................Liar!!!!!!!!!!
C#|-------------------------------------------------------------------------|
G#|-------------------------------------------------------------------------|
E |-------------------------------------------------------------------------|
B |6--6--6--6--6--6--6--6--6--6--6--6--6--6--6--6--6--6--6--6--6--6--6--6--6|
F#|6--6--6--6--6--6--6--6--6--6--6--6--6--6--6--6--6--6--6--6--6--6--6--6--6|
C#|4004004004004004004004004004004004004004004004004004004004004004004004004|
    .. .. .. .. .. .. .. .. .. .. .. .. .. .. .. .. .. .. .. .. .. .. .. ..

C#|------------------------------|
G#|------------------------------|
E |------------------------------|
B |--6--6--6--6--6--6--6--2------|
F#|--6--6--6--6--6--6--6--2------|
C#|004004004004004004004000------|
   .. .. .. .. .. .. .. ..

That's all!
Tap to rate this tab
# A B C D E F G H I J K L M N O P Q R S T U V W X Y Z