Song name
# A B C D E F G H I J K L M N O P Q R S T U V W X Y Z

Chiodos - I Didnt Say I Was Powerful I Said I Was A Wizard tab

part1
e|-----------------------------------------|
B|-----------------------------------------|
G|--6-6-6-6-6-6-6-6-6-6-6-6-6-6-6-6--------|
D|--4-4-4-4-4-4-4-4-3-3-3-3-3-3-3-3--------|
A|-----------------------------------------|
D|-----------------------------------------|
  the moment the she left the room...
e|--------------------------------------|
B|--------------------------------------|
G|--6----6-x-x-6----6-x-x-6----6-x-x-6--|
D|--4----4-x-x-3----3-x-x-4----4-x-x-3--|
A|--------------------------------------|
D|--------------------------------------|
  a shadow that has fallen over this town...

part2
e|-----------------------------------------------------------------|
B|-----------------------------------------------------------------|
G|--6-6-6--6---6---6---6--6-6-6--6-6-6---6---6---6---6--6-6-6------|
D|--4-4-4--4---4---4---4--4-4-4--3-3-3---3---3---3---3--3-3-3------|
A|-----------------------------------------------------------------|
D|-----------------------------------------------------------------|

e|-----------------------------------------------------------------|
B|-----------------------------------------------------------------|
G|--7-7-7--7---7---7---7--7-7-7------------------------------------|
D|--7-7-7--7---7---7---7--7-7-7--7-7-7-x-x-x-7-7-7-x-x-x-----------|
A|--5-5-5--5---5---5---5--5-5-5--7-7-7-x-x-x-7-7-7-x-x-x-----------|
D|-------------------------------7-7-7-x-x-x-6-6-6-x-x-x-----------|
  Attention all of my worst critics who were ones the best of friends...

part3
e|-------------------------|
B|-------------------------|
G|-------------------------|
D|--4-4-4-4-4-4-4-4-(x4)---|
A|--4-4-4-4-4-4-4-4--------|
D|--4-4-4-4-4-4-4-4--------|
  into romantic speculations...

*pretty much just play part 2 
 again after part 3, part 2 
 is the verse and the chorus.
 listen to the
 song and try litening for it.









Tablature Legend
----------------
L - tied note
x - dead note
g - grace note
(n) - ghost note
> - accentuded note
NH - natural harmonic
AH - artificial harmonic
TH - tapped harmonic
SH - semi harmonic
PH - pitch harmonic
h - hammer on
p - pull off
b - bend
br - bendRelease
pb - preBend
pbr - preBendRelease
brb - bendReleaseBend
\n/ - tremolo bar dip
\n - tremolo bar dive
-/n - tremolo bar Release up
/n\ - tremolo bar inverted dip
/n - tremolo bar return
-\n - tremolo bar Release down
S - shift slide
s - legato slide
/ -  slide into from below or out of upwards
\ -  slide into from above or out of downwards
~ - vibrato
W - wide vibrato
tr - trill
TP - tremolo picking
T - tapping
S - slap
P - pop
< - fade in
^ - brush up
v - brush down

Tap to rate this tab
# A B C D E F G H I J K L M N O P Q R S T U V W X Y Z