Song name
# A B C D E F G H I J K L M N O P Q R S T U V W X Y Z

Chiodos - Two Birds Stoned At Once tab

I saw people requesting this song to be tabbed so here it is. Enjoy.

Artist: Chiodos
Song: Two Birds Stoned At Once
Album: The Bone Palace Ballet (Grand Coda)
Tabbed by: Doug Coleman

[opening strings]
Guitar 1:
0:01-0:31
e|----------------------------------------------------------------------------|
b|---------------------8---------------------------------------8--10--8-------|
g|--10---10---9---10--------10---9---10-----10---10---9---10--------------9~--|
d|-----7----7---7----7---7-----7---7----7------7----7---7----7--7---7---7-----|
a|----------------------------------------------------------------------------|
D|----------------------------------------------------------------------------|

e|------------------------------------------------------------------------|
b|-----------------------8------------------------------------------------|
g|----10---10---9---10--------10---9---10-----7~~-7--6~~-6----------------|
d|-------7----7---7----7---7-----7---7----7-----------------8~~-8--7~~-7--|
a|------------------------------------------------------------------------|
D|------------------------------------------------------------------------|

[verse]
Guitars 1 + 2:
0:32-0:55
e|-----------------------------------------------------------------|
b|-----------------------------------------------------------------|
g|--10--10--9--10--12--10--9--10----10--10--9--10--12--14--12--10--|
d|--X---X---X---X---X---X--X---X----X---X---X---X---X---X---X---X--|
a|--8---8---7---8--10---8--7---8----8---8---7---8--10--12--10---8--|
D|-----------------------------------------------------------------|

e|-----------------------------------------------------------|
b|-----------------------------------------------------------|
g|--10--10--9--10--12--10--9--10---10--7--9--5--7--10--9--5--|
d|--X---X---X---X---X---X--X---X----X--X--X--X--X---X--X--X--|
a|--8---8---7---8--10---8--7---8----8--5--7--3--5---8--7--3--| 
D|-----------------------------------------------------------|

[verse end]
e|-------------------------------|
b|-------------------------------|
g|----------------------------2--|
d|--10--7--9--5--7--10--9--5--2--|
a|---X--X--X--X--X---X--X--X--0--|
D|---8--5--7--3--5---8--7--3-----|

[chorus]
Guitars 1 + 2:
0:56-1:15
e|------------------------------------------------------------------------|
b|------------------------------------------------------------------------|
g|------------------------------------------------------------------------|
d|------------------------------------------------------------------------|
a|--8p7p0--8p7p0--8p7p0--8p7p0--8p7p0--7p5p0--7p5p0--7p5p0--7p5p0--7p5p0--|
D|------------------------------------------------------------------------|

e|----------------------------------------------------------------|
B|----------------------------------------------------------------|
g|----------------------------------------------------------------|
d|------5-----5-----5-----5-----5----------------------------0----|
a|------5-----5-----5-----5-----5----------------------------0----|
D|--8p7p5-8p7p5-8p7p5-8p7p5-8p7p5--7p5p0-7p5p0-7p5p0-7p5p0---0~~--|

e|--------------------------------------------------------------------------|
b|--------------------------------------------------------------------------|
g|--------------------------------------------------------------------------|
d|--------------------------------------------------------------------------|
a|--8p7p0--8p7p0--8p7p0--10p7p0--10p7p0--7p5p0--7p5p0--7p5p0--8p5p0--8p5p0--|
D|--------------------------------------------------------------------------|

e|----------------------------------------------------------------|
B|----------------------------------------------------------------|
g|----------------------------------------------------------------|
d|------5-----5-----5-----5-----5----------------------------0----|
a|------5-----5-----5-----5-----5----------------------------0----|
D|--8p7p5-8p7p5-8p7p5-8p7p5-8p7p5--7p5p0-7p5p0-7p5p0-7p5p0---0~~--|


[verse2]
Guitars 1 + 2:
1:16-1:36		repeat as needed
e|---------------------------------------------------------------|
b|---------------------------------------------------------------|
g|---------------------------------------------------------------|
d|--10---x--9-9--10---9-9-9----10---x--9-9--10-------------------|
a|---X---x--X-X---X---X-X-X-----X---x--X-X---X---8p7-------------|
D|---8---x--7-7---8---7-7-7-----8---x--7-7---8-------10-8-7\5/7--|

[riff after verse]
1:37-1:40
Guitar 1:
e|-------------------------------8~~--|
b|----11-10-8--10-8-------------------|
g|------------------10--7-9-10-9------|
d|--0---------------------------------|
a|------------------------------------|
D|------------------------------------|

Guitar 2:
e|---------------------------------|
b|---------------------------------|
g|----------------------------6~~--|
d|-----8-7-5---7-5-----------------|
a|-----------------8--5-7-8-7------|
D|--0------------------------------|

Bass:
g|----------------------------------------|
d|----------------------------------------|
a|-----------------------------------3~~--|
D|--0--8-7-5---7--7-5-3--0--2-3-3-2-------|

[slow clean guitar]
Guitar 1:
1:40-2:05
e|---------5----5----5----------3-----3----3--|
b|-------6----6---------------5-----5---------| (play fast as tempo in song)
g|--7--7----7-----7------6--6-----6-----6-----|
d|--------------------------------------------|
a|--------------------------------------------|
D|--------------------------------------------|

Last four counts do this instead of above:
e|---------5----5----5----------6----6----6----------5----5----5----------3-----3----3--|
b|-------6----6---------------6----6---------------6----6---------------5-----5---------|
g|--7--7----7-----7------7--7----7-----7------7--7----7-----7------6--6-----6-----6-----|
d|--------------------------------------------------------------------------------------|
a|--------------------------------------------------------------------------------------|
D|--------------------------------------------------------------------------------------|

Guitar 2:
1:53-2:05
e|---------------------------------------------------------|
b|--10----10-----------------------10----10----11----10----|
g|-----7-----7---10---7---10---7------7-----7-----7-----7--|
d|---------------------------------------------------------|
a|---------------------------------------------------------|
D|---------------------------------------------------------|

2:05-2:06
e|-------------------|
b|--8-5--------------|
g|------7-4----------|
d|----------8-7-5-7--|
a|-------------------|
D|-------------------|

[chorus]
Guitars 1 + 2
2:06-2:26
e|------------------------------------------------------------------------|
b|------------------------------------------------------------------------|
g|------------------------------------------------------------------------|
d|------------------------------------------------------------------------|
a|--8p7p0--8p7p0--8p7p0--8p7p0--8p7p0--7p5p0--7p5p0--7p5p0--7p5p0--7p5p0--|
D|------------------------------------------------------------------------|

e|----------------------------------------------------------------|
B|----------------------------------------------------------------|
g|----------------------------------------------------------------|
d|------5-----5-----5-----5-----5----------------------------0----|
a|------5-----5-----5-----5-----5----------------------------0----|
D|--8p7p5-8p7p5-8p7p5-8p7p5-8p7p5--7p5p0-7p5p0-7p5p0-7p5p0---0~~--|

e|--------------------------------------------------------------------------|
b|--------------------------------------------------------------------------|
g|--------------------------------------------------------------------------|
d|--------------------------------------------------------------------------|
a|--8p7p0--8p7p0--8p7p0--10p7p0--10p7p0--7p5p0--7p5p0--7p5p0--8p5p0--8p5p0--|
D|--------------------------------------------------------------------------|

e|----------------------------------------------------------------|
B|----------------------------------------------------------------|
g|----------------------------------------------------------------|
d|------5-----5-----5-----5-----5----------------------------0----|
a|------5-----5-----5-----5-----5----------------------------0----|
D|--8p7p5-8p7p5-8p7p5-8p7p5-8p7p5--7p5p0-7p5p0-7p5p0-7p5p0---0~~--|

[breakdown]
2:27-2:49
Guitar 1:
e|----------------------------------------|
b|----------------------------------------|
g|----------------------------------------|
d|--0------3--3------5------3--5----3--0--| (repeat until end)
a|--0------3--3------5------3--5----3--0--|
D|--0------3--3------5------3--5----3--0--|

Guitar 2:
the part is brackets is guitar one, you dont have to play it
e|--------------------------------------------------------------------------|
b|------------------------10-----------11----------------10-----------------|
g|-------10----------------X------------X-----------------X-----------------|
d|--[0]--X-(x8)--[3]--[3]--X-(x8)--[5]--X-(x8)--[3]--[5]--X-(x8)--[3]--[0]--| (repeat until end)
a|--[0]--8-------[3]--[3]--8-------[5]--8-------[3]--[5]--8-------[3]--[0]--|
D|--[0]----------[3]--[3]----------[5]----------[3]--[5]----------[3]--[0]--|

Lyrics:

so, here i am again.
both of my eyes so, open wide and gleaming.
blank stares, with races running only an inch behind.
sit back and watch the pavement get closer as it aims for your face.
so step back, let me take over.
can you hear the silhouettes?
the slim and dark figures.
rising like giants out of the shadows.
they're crawling out.
they're crawling out of our skin.
here i am again.
we build ourselves, where monsters used to hide.
oh, how we celebrate the mediocrity.
my feelings crawl the walls.
they crawl the walls, and finally fall.
they finally fall.
like empires and old loves.
and we're all whores, some of us just get paid. 
Tap to rate this tab
 
# A B C D E F G H I J K L M N O P Q R S T U V W X Y Z